  0
SECTION
  2
HEADER
  9
$ACADVER
  1
AC1014
  9
$ACADMAINTVER
 70
     9
  9
$DWGCODEPAGE
  3
ANSI_1252
  9
$INSBASE
 10
0.0
 20
0.0
 30
0.0
  9
$EXTMIN
 10
12.652411
 20
-240.248998
 30
-0.001526
  9
$EXTMAX
 10
335.747096
 20
-4.428282
 30
0.0
  9
$LIMMIN
 10
12.588207
 20
-240.241667
  9
$LIMMAX
 10
336.255789
 20
0.0
  9
$ORTHOMODE
 70
     0
  9
$REGENMODE
 70
     1
  9
$FILLMODE
 70
     1
  9
$QTEXTMODE
 70
     0
  9
$MIRRTEXT
 70
     1
  9
$DRAGMODE
 70
     2
  9
$LTSCALE
 40
1.0
  9
$OSMODE
 70
     0
  9
$ATTMODE
 70
     1
  9
$TEXTSIZE
 40
0.2
  9
$TRACEWID
 40
0.05
  9
$TEXTSTYLE
  7
STANDARD
  9
$CLAYER
  8
0
  9
$CELTYPE
  6
CONTINUOUS
  9
$CECOLOR
 62
   256
  9
$CELTSCALE
 40
1.0
  9
$DELOBJ
 70
     1
  9
$DISPSILH
 70
     0
  9
$DIMSCALE
 40
1.0
  9
$DIMASZ
 40
0.18
  9
$DIMEXO
 40
0.0625
  9
$DIMDLI
 40
0.38
  9
$DIMRND
 40
0.0
  9
$DIMDLE
 40
0.0
  9
$DIMEXE
 40
0.18
  9
$DIMTP
 40
0.0
  9
$DIMTM
 40
0.0
  9
$DIMTXT
 40
0.18
  9
$DIMCEN
 40
0.09
  9
$DIMTSZ
 40
0.0
  9
$DIMTOL
 70
     0
  9
$DIMLIM
 70
     0
  9
$DIMTIH
 70
     1
  9
$DIMTOH
 70
     1
  9
$DIMSE1
 70
     0
  9
$DIMSE2
 70
     0
  9
$DIMTAD
 70
     0
  9
$DIMZIN
 70
     0
  9
$DIMBLK
  1

  9
$DIMASO
 70
     1
  9
$DIMSHO
 70
     1
  9
$DIMPOST
  1

  9
$DIMAPOST
  1

  9
$DIMALT
 70
     0
  9
$DIMALTD
 70
     2
  9
$DIMALTF
 40
25.4
  9
$DIMLFAC
 40
1.0
  9
$DIMTOFL
 70
     0
  9
$DIMTVP
 40
0.0
  9
$DIMTIX
 70
     0
  9
$DIMSOXD
 70
     0
  9
$DIMSAH
 70
     0
  9
$DIMBLK1
  1

  9
$DIMBLK2
  1

  9
$DIMSTYLE
  2
STANDARD
  9
$DIMCLRD
 70
     0
  9
$DIMCLRE
 70
     0
  9
$DIMCLRT
 70
     0
  9
$DIMTFAC
 40
1.0
  9
$DIMGAP
 40
0.09
  9
$DIMJUST
 70
     0
  9
$DIMSD1
 70
     0
  9
$DIMSD2
 70
     0
  9
$DIMTOLJ
 70
     1
  9
$DIMTZIN
 70
     0
  9
$DIMALTZ
 70
     0
  9
$DIMALTTZ
 70
     0
  9
$DIMFIT
 70
     3
  9
$DIMUPT
 70
     0
  9
$DIMUNIT
 70
     2
  9
$DIMDEC
 70
     4
  9
$DIMTDEC
 70
     4
  9
$DIMALTU
 70
     2
  9
$DIMALTTD
 70
     2
  9
$DIMTXSTY
  7
STANDARD
  9
$DIMAUNIT
 70
     0
  9
$LUNITS
 70
     2
  9
$LUPREC
 70
     4
  9
$SKETCHINC
 40
0.1
  9
$FILLETRAD
 40
0.0
  9
$AUNITS
 70
     0
  9
$AUPREC
 70
     0
  9
$MENU
  1
acad
  9
$ELEVATION
 40
0.0
  9
$PELEVATION
 40
0.0
  9
$THICKNESS
 40
0.0
  9
$LIMCHECK
 70
     0
  9
$BLIPMODE
 70
     1
  9
$CHAMFERA
 40
0.0
  9
$CHAMFERB
 40
0.0
  9
$CHAMFERC
 40
0.0
  9
$CHAMFERD
 40
0.0
  9
$SKPOLY
 70
     0
  9
$TDCREATE
 40
2451974.373921181
  9
$TDUPDATE
 40
2451974.373921181
  9
$TDINDWG
 40
0.0000000000
  9
$TDUSRTIMER
 40
0.0000000000
  9
$USRTIMER
 70
     1
  9
$ANGBASE
 50
0.0
  9
$ANGDIR
 70
     0
  9
$PDMODE
 70
     0
  9
$PDSIZE
 40
0.0
  9
$PLINEWID
 40
0.0
  9
$COORDS
 70
     0
  9
$SPLFRAME
 70
     0
  9
$SPLINETYPE
 70
     6
  9
$SPLINESEGS
 70
     8
  9
$ATTDIA
 70
     0
  9
$ATTREQ
 70
     1
  9
$HANDLING
 70
     1
  9
$HANDSEED
  5
4A6
  9
$SURFTAB1
 70
     6
  9
$SURFTAB2
 70
     6
  9
$SURFTYPE
 70
     6
  9
$SURFU
 70
     6
  9
$SURFV
 70
     6
  9
$UCSNAME
  2

  9
$UCSORG
 10
0.0
 20
0.0
 30
0.0
  9
$UCSXDIR
 10
1.0
 20
0.0
 30
0.0
  9
$UCSYDIR
 10
0.0
 20
1.0
 30
0.0
  9
$PUCSNAME
  2

  9
$PUCSORG
 10
0.0
 20
0.0
 30
0.0
  9
$PUCSXDIR
 10
1.0
 20
0.0
 30
0.0
  9
$PUCSYDIR
 10
0.0
 20
1.0
 30
0.0
  9
$USERI1
 70
     0
  9
$USERI2
 70
     0
  9
$USERI3
 70
     0
  9
$USERI4
 70
     0
  9
$USERI5
 70
     0
  9
$USERR1
 40
0.0
  9
$USERR2
 40
0.0
  9
$USERR3
 40
0.0
  9
$USERR4
 40
0.0
  9
$USERR5
 40
0.0
  9
$WORLDVIEW
 70
     1
  9
$SHADEDGE
 70
     3
  9
$SHADEDIF
 70
    70
  9
$TILEMODE
 70
     1
  9
$MAXACTVP
 70
    16
  9
$PINSBASE
 10
0.0
 20
0.0
 30
0.0
  9
$PLIMCHECK
 70
     0
  9
$PEXTMIN
 10
1.000000E+20
 20
1.000000E+20
 30
1.000000E+20
  9
$PEXTMAX
 10
-1.000000E+20
 20
-1.000000E+20
 30
-1.000000E+20
  9
$PLIMMIN
 10
0.0
 20
0.0
  9
$PLIMMAX
 10
12.0
 20
9.0
  9
$UNITMODE
 70
     0
  9
$VISRETAIN
 70
     0
  9
$PLINEGEN
 70
     1
  9
$PSLTSCALE
 70
     0
  9
$TREEDEPTH
 70
  3020
  9
$PICKSTYLE
 70
     1
  9
$CMLSTYLE
  2
STANDARD
  9
$CMLJUST
 70
     0
  9
$CMLSCALE
 40
1.0
  9
$PROXYGRAPHICS
 70
     0
  9
$MEASUREMENT
 70
     0
  0
ENDSEC
  0
SECTION
  2
CLASSES
  0
CLASS
  1
LWPOLYLINE
  2
AcDbPolyline
  3
"AutoCAD"
 90
        0
280
     0
281
     1
  0
CLASS
  1
IMAGE
  2
AcDbRasterImage
  3
ISM
 90
      127
280
     0
281
     1
  0
CLASS
  1
OLE2FRAME
  2
AcDbOle2Frame
  3
""
 90
        0
280
     0
281
     1
  0
CLASS
  1
HATCH
  2
AcDbHatch
  3
"ACAD_SEDONA"
 90
        0
280
     0
281
     1
  0
CLASS
  1
DICTIONARYVAR
  2
AcDbDictionaryVar
  3
"AutoCAD"
 90
        0
280
     0
281
     0
  0
CLASS
  1
RASTERVARIABLES
  2
AcDbRasterVariables
  3
ISM
 90
        0
280
     0
281
     0
  0
CLASS
  1
IMAGEDEF
  2
AcDbRasterImageDef
  3
ISM
 90
        0
280
     0
281
     0
  0
CLASS
  1
IMAGEDEF_REACTOR
  2
AcDbRasterImageDefReactor
  3
ISM
 90
        1
280
     0
281
     0
  0
CLASS
  1
IDBUFFER
  2
AcDbIdBuffer
  3
"Acad"
 90
        0
280
     0
281
     0
  0
CLASS
  1
SPATIAL_FILTER
  2
AcDbSpatialFilter
  3
"Acad"
 90
        0
280
     0
281
     0
  0
CLASS
  1
XRECORD
  2
AcDbXrecord
  3
"<Built In>"
 90
        0
280
     0
281
     0
  0
CLASS
  1
SORTENTSTABLE
  2
AcDbSortentsTable
  3
"AutoCAD"
 90
        0
280
     0
281
     0
  0
CLASS
  1
LAYER_INDEX
  2
AcDbLayerIndex
  3
"Acad"
 90
        0
280
     0
281
     0
  0
CLASS
  1
SPATIAL_INDEX
  2
AcDbSpatialIndex
  3
"Acad"
 90
        0
280
     0
281
     0
  0
CLASS
  1
OBJECT_PTR
  2
CAseDLPNTableRecord
  3
ASE-LPNTableRecord
 90
        1
280
     0
281
     0
  0
CLASS
  1
LAYOUT
  2
AcDbLayout
  3
"AutoCAD 2000"
 90
        1
280
     0
281
     0
  0
CLASS
  1
PLOTSETTINGS
  2
AcDbPlotSettings
  3
"AutoCAD 2000"
 90
        1
280
     0
281
     0
  0
CLASS
  1
ACDBDICTIONARYWDFLT
  2
AcDbDictionaryWithDefault
  3
"AutoCAD 2000"
 90
        1
280
     0
281
     0
  0
CLASS
  1
ACDBPLACEHOLDER
  2
AcDbPlaceHolder
  3
"AutoCAD 2000"
 90
        1
280
     0
281
     0
  0
CLASS
  1
VBA_PROJECT
  2
AcDbVbaProject
  3
"acadvba"
 90
        1
280
     0
281
     0
  0
CLASS
  1
WIPEOUT
  2
AcDbWipeout
  3
WipeOut|AutoCAD Express Tool|expresstools@autodesk.com
 90
      127
280
     0
281
     1
  0
CLASS
  1
WIPEOUTVARIABLES
  2
AcDbWipeoutVariables
  3
WipeOut|AutoCAD Express Tool|expresstools@autodesk.com
 90
        0
280
     0
281
     0
  0
CLASS
  1
RTEXT
  2
RText
  3
RText|AutoCAD Express Tool|expresstools@autodesk.com
 90
        0
280
     0
281
     1
  0
CLASS
  1
ARCALIGNEDTEXT
  2
AcDbArcAlignedText
  3
ATEXT|AutoCAD Express Tool|expresstools@autodesk.com
 90
        0
280
     0
281
     1
  0
ENDSEC
  0
SECTION
  2
TABLES
  0
TABLE
  2
VPORT
  5
7
100
AcDbSymbolTable
 70
     2
  0
VPORT
  5
4A5
100
AcDbSymbolTableRecord
100
AcDbViewportTableRecord
  2
*ACTIVE
 70
     0
 10
0.0
 20
0.0
 11
1.0
 21
1.0
 12
174.421998
 22
-120.124499
 13
0.0
 23
0.0
 14
1.0
 24
1.0
 15
0.0
 25
0.0
 16
0.0
 26
0.0
 36
1.0
 17
0.0
 27
0.0
 37
0.0
 40
336.050809
 41
1.529968
 42
50.0
 43
0.0
 44
0.0
 50
0.0
 51
0.0
 71
     0
 72
   100
 73
     1
 74
     1
 75
     0
 76
     0
 77
     0
 78
     0
  0
ENDTAB
  0
TABLE
  2
LTYPE
  5
4
100
AcDbSymbolTable
 70
     4
  0
LTYPE
  5
11
100
AcDbSymbolTableRecord
100
AcDbLinetypeTableRecord
  2
BYBLOCK
 70
     0
  3

 72
    65
 73
     0
 40
0.0
  0
LTYPE
  5
12
100
AcDbSymbolTableRecord
100
AcDbLinetypeTableRecord
  2
BYLAYER
 70
     0
  3

 72
    65
 73
     0
 40
0.0
  0
LTYPE
  5
13
100
AcDbSymbolTableRecord
100
AcDbLinetypeTableRecord
  2
CONTINUOUS
 70
     0
  3
Solid line
 72
    65
 73
     0
 40
0.0
  0
LTYPE
  5
28E
100
AcDbSymbolTableRecord
100
AcDbLinetypeTableRecord
  2
AI9-LTYPE1
 70
     0
  3
Illustrator Dash Style No.1
 72
    65
 73
     4
 40
2.822222
 49
0.705556
 74
     0
 49
-0.705556
 74
     0
 49
0.705556
 74
     0
 49
-0.705556
 74
     0
  0
LTYPE
  5
2A0
100
AcDbSymbolTableRecord
100
AcDbLinetypeTableRecord
  2
AI9-LTYPE2
 70
     0
  3
Illustrator Dash Style No.2
 72
    65
 73
     4
 40
5.644444
 49
3.527778
 74
     0
 49
-0.705556
 74
     0
 49
0.705556
 74
     0
 49
-0.705556
 74
     0
  0
LTYPE
  5
325
100
AcDbSymbolTableRecord
100
AcDbLinetypeTableRecord
  2
AI9-LTYPE3
 70
     0
  3
Illustrator Dash Style No.3
 72
    65
 73
     2
 40
3.527778
 49
1.763889
 74
     0
 49
-1.763889
 74
     0
  0
ENDTAB
  0
TABLE
  2
LAYER
  5
2
100
AcDbSymbolTable
 70
     5
  0
LAYER
  5
14
100
AcDbSymbolTableRecord
100
AcDbLayerTableRecord
  2
0
 70
     0
 62
     7
  6
CONTINUOUS
  0
LAYER
  5
21
100
AcDbSymbolTableRecord
100
AcDbLayerTableRecord
  2
SAFETY_MAINTENANCE
 70
     0
 62
   160
  6
CONTINUOUS
  0
LAYER
  5
5F
100
AcDbSymbolTableRecord
100
AcDbLayerTableRecord
  2
P357_PLAN
 70
     0
 62
     2
  6
CONTINUOUS
  0
LAYER
  5
393
100
AcDbSymbolTableRecord
100
AcDbLayerTableRecord
  2
SPECIFICATIONS
 70
     0
 62
     2
  6
CONTINUOUS
  0
LAYER
  5
47D
100
AcDbSymbolTableRecord
100
AcDbLayerTableRecord
  2
MATERIAL
 70
     0
 62
     5
  6
CONTINUOUS
  0
ENDTAB
  0
TABLE
  2
STYLE
  5
3
100
AcDbSymbolTable
 70
     5
  0
STYLE
  5
17
100
AcDbSymbolTableRecord
100
AcDbTextStyleTableRecord
  2
STANDARD
 70
     0
 40
0.0
 41
1.0
 50
0.0
 71
     0
 42
0.0
  3
txt
  4

  0
STYLE
  5
1D
100
AcDbSymbolTableRecord
100
AcDbTextStyleTableRecord
  2
STD
 70
     0
 40
0.0
 41
1.0
 50
0.0
 71
     0
 42
0.0
  3
txt
  4

  0
STYLE
  5
1E
100
AcDbSymbolTableRecord
100
AcDbTextStyleTableRecord
  2
TATESTD
 70
     4
 40
0.0
 41
1.0
 50
0.0
 71
     0
 42
0.0
  3
txt
  4

  0
STYLE
  5
1F
100
AcDbSymbolTableRecord
100
AcDbTextStyleTableRecord
  2
KANJISTD
 70
     0
 40
0.0
 41
1.0
 50
0.0
 71
     0
 42
0.0
  3
txt
  4
extfont
  0
STYLE
  5
20
100
AcDbSymbolTableRecord
100
AcDbTextStyleTableRecord
  2
KANJITATE
 70
     4
 40
0.0
 41
1.0
 50
0.0
 71
     0
 42
0.0
  3
txt
  4
extfont
  0
ENDTAB
  0
TABLE
  2
VIEW
  5
5
100
AcDbSymbolTable
 70
     0
  0
ENDTAB
  0
TABLE
  2
UCS
  5
6
100
AcDbSymbolTable
 70
     0
  0
ENDTAB
  0
TABLE
  2
APPID
  5
8
100
AcDbSymbolTable
 70
     1
  0
APPID
  5
16
100
AcDbSymbolTableRecord
100
AcDbRegAppTableRecord
  2
ACAD
 70
     0
  0
ENDTAB
  0
TABLE
  2
DIMSTYLE
  5
9
100
AcDbSymbolTable
 70
     1
  0
DIMSTYLE
105
18
100
AcDbSymbolTableRecord
100
AcDbDimStyleTableRecord
  2
STANDARD
 70
     0
  3

  4

  5

  6

  7

 40
1.0
 41
0.18
 42
0.0625
 43
0.38
 44
0.18
 45
0.0
 46
0.0
 47
0.0
 48
0.0
140
0.18
141
0.09
142
0.0
143
25.4
144
1.0
145
0.0
146
1.0
147
0.09
 71
     0
 72
     0
 73
     1
 74
     1
 75
     0
 76
     0
 77
     0
 78
     0
170
     0
171
     2
172
     0
173
     0
174
     0
175
     0
176
     0
177
     0
178
     0
270
     2
271
     4
272
     4
273
     2
274
     2
340
17
275
     0
280
     0
281
     0
282
     0
283
     1
284
     0
285
     0
286
     0
287
     0
288
     0
  0
ENDTAB
  0
TABLE
  2
BLOCK_RECORD
  5
1
100
AcDbSymbolTable
 70
    43
  0
BLOCK_RECORD
  5
A
100
AcDbSymbolTableRecord
100
AcDbBlockTableRecord
  2
*MODEL_SPACE
  0
BLOCK_RECORD
  5
B
100
AcDbSymbolTableRecord
100
AcDbBlockTableRecord
  2
*PAPER_SPACE
  0
BLOCK_RECORD
  5
22
100
AcDbSymbolTableRecord
100
AcDbBlockTableRecord
  2
AI9-BLK1
  0
BLOCK_RECORD
  5
36
100
AcDbSymbolTableRecord
100
AcDbBlockTableRecord
  2
AI9-BLK2
  0
BLOCK_RECORD
  5
61
100
AcDbSymbolTableRecord
100
AcDbBlockTableRecord
  2
AI9-BLK3
  0
BLOCK_RECORD
  5
64
100
AcDbSymbolTableRecord
100
AcDbBlockTableRecord
  2
AI9-BLK4
  0
BLOCK_RECORD
  5
78
100
AcDbSymbolTableRecord
100
AcDbBlockTableRecord
  2
AI9-BLK5
  0
BLOCK_RECORD
  5
8B
100
AcDbSymbolTableRecord
100
AcDbBlockTableRecord
  2
AI9-BLK6
  0
BLOCK_RECORD
  5
A1
100
AcDbSymbolTableRecord
100
AcDbBlockTableRecord
  2
AI9-BLK7
  0
BLOCK_RECORD
  5
B8
100
AcDbSymbolTableRecord
100
AcDbBlockTableRecord
  2
AI9-BLK8
  0
BLOCK_RECORD
  5
CD
100
AcDbSymbolTableRecord
100
AcDbBlockTableRecord
  2
AI9-BLK9
  0
BLOCK_RECORD
  5
E1
100
AcDbSymbolTableRecord
100
AcDbBlockTableRecord
  2
AI9-BLK10
  0
BLOCK_RECORD
  5
F3
100
AcDbSymbolTableRecord
100
AcDbBlockTableRecord
  2
AI9-BLK11
  0
BLOCK_RECORD
  5
107
100
AcDbSymbolTableRecord
100
AcDbBlockTableRecord
  2
AI9-BLK12
  0
BLOCK_RECORD
  5
11B
100
AcDbSymbolTableRecord
100
AcDbBlockTableRecord
  2
AI9-BLK13
  0
BLOCK_RECORD
  5
12F
100
AcDbSymbolTableRecord
100
AcDbBlockTableRecord
  2
AI9-BLK14
  0
BLOCK_RECORD
  5
143
100
AcDbSymbolTableRecord
100
AcDbBlockTableRecord
  2
AI9-BLK15
  0
BLOCK_RECORD
  5
157
100
AcDbSymbolTableRecord
100
AcDbBlockTableRecord
  2
AI9-BLK16
  0
BLOCK_RECORD
  5
170
100
AcDbSymbolTableRecord
100
AcDbBlockTableRecord
  2
AI9-BLK17
  0
BLOCK_RECORD
  5
1CD
100
AcDbSymbolTableRecord
100
AcDbBlockTableRecord
  2
AI9-BLK18
  0
BLOCK_RECORD
  5
22A
100
AcDbSymbolTableRecord
100
AcDbBlockTableRecord
  2
AI9-BLK19
  0
BLOCK_RECORD
  5
2B0
100
AcDbSymbolTableRecord
100
AcDbBlockTableRecord
  2
AI9-BLK20
  0
BLOCK_RECORD
  5
2B3
100
AcDbSymbolTableRecord
100
AcDbBlockTableRecord
  2
AI9-BLK21
  0
BLOCK_RECORD
  5
2B8
100
AcDbSymbolTableRecord
100
AcDbBlockTableRecord
  2
AI9-BLK22
  0
BLOCK_RECORD
  5
2C2
100
AcDbSymbolTableRecord
100
AcDbBlockTableRecord
  2
AI9-BLK23
  0
BLOCK_RECORD
  5
2DC
100
AcDbSymbolTableRecord
100
AcDbBlockTableRecord
  2
AI9-BLK24
  0
BLOCK_RECORD
  5
2E6
100
AcDbSymbolTableRecord
100
AcDbBlockTableRecord
  2
AI9-BLK25
  0
BLOCK_RECORD
  5
2E9
100
AcDbSymbolTableRecord
100
AcDbBlockTableRecord
  2
AI9-BLK26
  0
BLOCK_RECORD
  5
2F3
100
AcDbSymbolTableRecord
100
AcDbBlockTableRecord
  2
AI9-BLK27
  0
BLOCK_RECORD
  5
2FE
100
AcDbSymbolTableRecord
100
AcDbBlockTableRecord
  2
AI9-BLK28
  0
BLOCK_RECORD
  5
301
100
AcDbSymbolTableRecord
100
AcDbBlockTableRecord
  2
AI9-BLK29
  0
BLOCK_RECORD
  5
30B
100
AcDbSymbolTableRecord
100
AcDbBlockTableRecord
  2
AI9-BLK30
  0
BLOCK_RECORD
  5
322
100
AcDbSymbolTableRecord
100
AcDbBlockTableRecord
  2
AI9-BLK31
  0
BLOCK_RECORD
  5
394
100
AcDbSymbolTableRecord
100
AcDbBlockTableRecord
  2
AI9-BLK32
  0
BLOCK_RECORD
  5
397
100
AcDbSymbolTableRecord
100
AcDbBlockTableRecord
  2
AI9-BLK33
  0
BLOCK_RECORD
  5
3A1
100
AcDbSymbolTableRecord
100
AcDbBlockTableRecord
  2
AI9-BLK34
  0
BLOCK_RECORD
  5
3AB
100
AcDbSymbolTableRecord
100
AcDbBlockTableRecord
  2
AI9-BLK35
  0
BLOCK_RECORD
  5
3B9
100
AcDbSymbolTableRecord
100
AcDbBlockTableRecord
  2
AI9-BLK36
  0
BLOCK_RECORD
  5
3C4
100
AcDbSymbolTableRecord
100
AcDbBlockTableRecord
  2
AI9-BLK37
  0
BLOCK_RECORD
  5
3D1
100
AcDbSymbolTableRecord
100
AcDbBlockTableRecord
  2
AI9-BLK38
  0
BLOCK_RECORD
  5
3DE
100
AcDbSymbolTableRecord
100
AcDbBlockTableRecord
  2
AI9-BLK39
  0
BLOCK_RECORD
  5
3EB
100
AcDbSymbolTableRecord
100
AcDbBlockTableRecord
  2
AI9-BLK40
  0
BLOCK_RECORD
  5
3FF
100
AcDbSymbolTableRecord
100
AcDbBlockTableRecord
  2
AI9-BLK41
  0
BLOCK_RECORD
  5
47E
100
AcDbSymbolTableRecord
100
AcDbBlockTableRecord
  2
AI9-BLK42
  0
BLOCK_RECORD
  5
496
100
AcDbSymbolTableRecord
100
AcDbBlockTableRecord
  2
AI9-BLK43
  0
ENDTAB
  0
ENDSEC
  0
SECTION
  2
BLOCKS
  0
BLOCK
  5
D
100
AcDbEntity
  8
0
100
AcDbBlockBegin
  2
*MODEL_SPACE
 70
     0
 10
0.0
 20
0.0
 30
0.0
  3
*MODEL_SPACE
  1

  0
ENDBLK
  5
E
100
AcDbEntity
  8
0
100
AcDbBlockEnd
  0
BLOCK
  5
F
100
AcDbEntity
 67
     1
  8
0
100
AcDbBlockBegin
  2
*PAPER_SPACE
 70
     0
 10
0.0
 20
0.0
 30
0.0
  3
*PAPER_SPACE
  1

  0
ENDBLK
  5
10
100
AcDbEntity
 67
     1
  8
0
100
AcDbBlockEnd
  0
BLOCK
  5
24
100
AcDbEntity
  8
SAFETY_MAINTENANCE
 62
     7
100
AcDbBlockBegin
  2
AI9-BLK1
 70
     0
 10
0.0
 20
0.0
 30
0.0
  3
AI9-BLK1
  1

  0
MTEXT
  5
34
100
AcDbEntity
  8
SAFETY_MAINTENANCE
 62
     7
100
AcDbMText
 10
-53.057739
 20
-46.106316
 30
0.0
 40
2.099868
 41
0.0
 71
     1
 72
     2
  1
\fArial|b0|i0;338.44" Recomended Safety / Maintenance Area 40" from all components
  7
STD
 11
0.0
 21
1.0
 31
0.0
  0
LINE
  5
33
100
AcDbEntity
  8
SAFETY_MAINTENANCE
 62
     7
100
AcDbLine
 10
53.48795
 20
107.453992
 30
0.0
 11
-50.957872
 21
107.453992
 31
0.0
  0
LINE
  5
32
100
AcDbEntity
  8
SAFETY_MAINTENANCE
 62
     7
100
AcDbLine
 10
39.814021
 20
-107.45382
 30
0.0
 11
-50.957872
 21
-107.45382
 31
0.0
  0
LINE
  5
31
100
AcDbEntity
  8
SAFETY_MAINTENANCE
 62
     7
100
AcDbLine
 10
-50.252316
 20
107.453992
 30
0.0
 11
-50.252316
 21
-107.45382
 31
0.0
  0
POLYLINE
  5
2C
100
AcDbEntity
  8
SAFETY_MAINTENANCE
 62
     7
100
AcDb2dPolyline
 66
     1
 10
0.0
 20
0.0
 30
0.0
 70
     1
  0
VERTEX
  5
2D
100
AcDbEntity
  8
SAFETY_MAINTENANCE
 62
     7
100
AcDbVertex
100
AcDb2dVertex
 10
-50.768047
 20
105.767101
 30
0.0
  0
VERTEX
  5
2E
100
AcDbEntity
  8
SAFETY_MAINTENANCE
 62
     7
100
AcDbVertex
100
AcDb2dVertex
 10
-50.252316
 20
107.453992
 30
0.0
  0
VERTEX
  5
2F
100
AcDbEntity
  8
SAFETY_MAINTENANCE
 62
     7
100
AcDbVertex
100
AcDb2dVertex
 10
-49.736585
 20
105.767101
 30
0.0
  0
SEQEND
  5
30
100
AcDbEntity
  8
SAFETY_MAINTENANCE
 62
     7
  0
HATCH
  5
2B
100
AcDbEntity
  8
SAFETY_MAINTENANCE
 62
     7
100
AcDbHatch
 10
0.0
 20
0.0
 30
0.0
210
0.0
220
0.0
230
1.0
  2
SOLID
 70
     1
 71
     0
 91
        1
 92
        3
 72
     0
 73
     1
 93
        3
 10
-50.76804673936631
 20
105.7671013726128
 10
-50.25231594509548
 20
107.4539923773871
 10
-49.73658515082465
 20
105.7671013726128
 97
        0
 75
     0
 76
     1
 98
        1
 10
0.0
 20
0.0
  0
POLYLINE
  5
26
100
AcDbEntity
  8
SAFETY_MAINTENANCE
 62
     7
100
AcDb2dPolyline
 66
     1
 10
0.0
 20
0.0
 30
0.0
 70
     1
  0
VERTEX
  5
27
100
AcDbEntity
  8
SAFETY_MAINTENANCE
 62
     7
100
AcDbVertex
100
AcDb2dVertex
 10
-49.736585
 20
-105.767101
 30
0.0
  0
VERTEX
  5
28
100
AcDbEntity
  8
SAFETY_MAINTENANCE
 62
     7
100
AcDbVertex
100
AcDb2dVertex
 10
-50.252316
 20
-107.45382
 30
0.0
  0
VERTEX
  5
29
100
AcDbEntity
  8
SAFETY_MAINTENANCE
 62
     7
100
AcDbVertex
100
AcDb2dVertex
 10
-50.768047
 20
-105.767101
 30
0.0
  0
SEQEND
  5
2A
100
AcDbEntity
  8
SAFETY_MAINTENANCE
 62
     7
  0
HATCH
  5
25
100
AcDbEntity
  8
SAFETY_MAINTENANCE
 62
     7
100
AcDbHatch
 10
0.0
 20
0.0
 30
0.0
210
0.0
220
0.0
230
1.0
  2
SOLID
 70
     1
 71
     0
 91
        1
 92
        3
 72
     0
 73
     1
 93
        3
 10
-49.73658515082465
 20
-105.7671013726128
 10
-50.25231594509548
 20
-107.4538201226128
 10
-50.76804673936631
 20
-105.7671013726128
 97
        0
 75
     0
 76
     1
 98
        1
 10
0.0
 20
0.0
  0
ENDBLK
  5
35
100
AcDbEntity
  8
SAFETY_MAINTENANCE
100
AcDbBlockEnd
  0
BLOCK
  5
38
100
AcDbEntity
  8
SAFETY_MAINTENANCE
 62
     7
100
AcDbBlockBegin
  2
AI9-BLK2
 70
     0
 10
0.0
 20
0.0
 30
0.0
  3
AI9-BLK2
  1

  0
MTEXT
  5
48
100
AcDbEntity
  8
SAFETY_MAINTENANCE
 62
     7
100
AcDbMText
 10
-46.106402
 20
-12.011243
 30
0.0
 40
2.099868
 41
0.0
 71
     1
 72
     2
  1
\fArial|b0|i0;368.00" Recomended Safety / Maintenance Area 40" from all components
  7
STD
 11
1.000001
 21
0.0
 31
0.0
  0
LINE
  5
47
100
AcDbEntity
  8
SAFETY_MAINTENANCE
 62
     7
100
AcDbLine
 10
-116.840241
 20
14.816667
 30
0.0
 11
-116.840241
 21
-15.522222
 31
0.0
  0
LINE
  5
46
100
AcDbEntity
  8
SAFETY_MAINTENANCE
 62
     7
100
AcDbLine
 10
116.840069
 20
15.522222
 30
0.0
 11
116.840069
 21
-15.522222
 31
0.0
  0
LINE
  5
45
100
AcDbEntity
  8
SAFETY_MAINTENANCE
 62
     7
100
AcDbLine
 10
-116.840241
 20
-14.816667
 30
0.0
 11
116.840069
 21
-14.816667
 31
0.0
  0
POLYLINE
  5
40
100
AcDbEntity
  8
SAFETY_MAINTENANCE
 62
     7
100
AcDb2dPolyline
 66
     1
 10
0.0
 20
0.0
 30
0.0
 70
     1
  0
VERTEX
  5
41
100
AcDbEntity
  8
SAFETY_MAINTENANCE
 62
     7
100
AcDbVertex
100
AcDb2dVertex
 10
-115.15335
 20
-15.332397
 30
0.0
  0
VERTEX
  5
42
100
AcDbEntity
  8
SAFETY_MAINTENANCE
 62
     7
100
AcDbVertex
100
AcDb2dVertex
 10
-116.840241
 20
-14.816667
 30
0.0
  0
VERTEX
  5
43
100
AcDbEntity
  8
SAFETY_MAINTENANCE
 62
     7
100
AcDbVertex
100
AcDb2dVertex
 10
-115.15335
 20
-14.300936
 30
0.0
  0
SEQEND
  5
44
100
AcDbEntity
  8
SAFETY_MAINTENANCE
 62
     7
  0
HATCH
  5
3F
100
AcDbEntity
  8
SAFETY_MAINTENANCE
 62
     7
100
AcDbHatch
 10
0.0
 20
0.0
 30
0.0
210
0.0
220
0.0
230
1.0
  2
SOLID
 70
     1
 71
     0
 91
        1
 92
        3
 72
     0
 73
     1
 93
        3
 10
-115.1533501519097
 20
-15.33239746093749
 10
-116.840241156684
 20
-14.81666666666666
 10
-115.1533501519097
 20
-14.30093587239583
 97
        0
 75
     0
 76
     1
 98
        1
 10
0.0
 20
0.0
  0
POLYLINE
  5
3A
100
AcDbEntity
  8
SAFETY_MAINTENANCE
 62
     7
100
AcDb2dPolyline
 66
     1
 10
0.0
 20
0.0
 30
0.0
 70
     1
  0
VERTEX
  5
3B
100
AcDbEntity
  8
SAFETY_MAINTENANCE
 62
     7
100
AcDbVertex
100
AcDb2dVertex
 10
115.15335
 20
-14.300936
 30
0.0
  0
VERTEX
  5
3C
100
AcDbEntity
  8
SAFETY_MAINTENANCE
 62
     7
100
AcDbVertex
100
AcDb2dVertex
 10
116.840069
 20
-14.816667
 30
0.0
  0
VERTEX
  5
3D
100
AcDbEntity
  8
SAFETY_MAINTENANCE
 62
     7
100
AcDbVertex
100
AcDb2dVertex
 10
115.15335
 20
-15.332397
 30
0.0
  0
SEQEND
  5
3E
100
AcDbEntity
  8
SAFETY_MAINTENANCE
 62
     7
  0
HATCH
  5
39
100
AcDbEntity
  8
SAFETY_MAINTENANCE
 62
     7
100
AcDbHatch
 10
0.0
 20
0.0
 30
0.0
210
0.0
220
0.0
230
1.0
  2
SOLID
 70
     1
 71
     0
 91
        1
 92
        3
 72
     0
 73
     1
 93
        3
 10
115.1533501519097
 20
-14.30093587239583
 10
116.8400689019097
 20
-14.81666666666666
 10
115.1533501519097
 20
-15.33239746093749
 97
        0
 75
     0
 76
     1
 98
        1
 10
0.0
 20
0.0
  0
ENDBLK
  5
49
100
AcDbEntity
  8
SAFETY_MAINTENANCE
100
AcDbBlockEnd
  0
BLOCK
  5
63
100
AcDbEntity
  8
P357_PLAN
 62
     7
100
AcDbBlockBegin
  2
AI9-BLK3
 70
     0
 10
0.0
 20
0.0
 30
0.0
  3
AI9-BLK3
  1

  0
INSERT
  5
8C
100
AcDbEntity
  8
P357_PLAN
 62
     7
100
AcDbBlockReference
  2
AI9-BLK6
 10
-24.349246
 20
-24.576708
 30
0.0
  0
INSERT
  5
79
100
AcDbEntity
  8
P357_PLAN
 62
     7
100
AcDbBlockReference
  2
AI9-BLK5
 10
22.874745
 20
-24.680406
 30
0.0
  0
INSERT
  5
65
100
AcDbEntity
  8
P357_PLAN
 62
     7
100
AcDbBlockReference
  2
AI9-BLK4
 10
0.0
 20
0.0
 30
0.0
  0
ENDBLK
  5
9E
100
AcDbEntity
  8
P357_PLAN
100
AcDbBlockEnd
  0
BLOCK
  5
66
100
AcDbEntity
  8
P357_PLAN
 62
     7
100
AcDbBlockBegin
  2
AI9-BLK4
 70
     0
 10
0.0
 20
0.0
 30
0.0
  3
AI9-BLK4
  1

  0
MTEXT
  5
76
100
AcDbEntity
  8
P357_PLAN
 62
     7
100
AcDbMText
 10
-14.937245
 20
-54.459557
 30
0.0
 40
2.099868
 41
0.0
 71
     1
 72
     2
  1
\fArial|b0|i0;148.74" Pega 357 width
  7
STD
 11
1.000001
 21
0.0
 31
0.0
  0
LINE
  5
75
100
AcDbEntity
  8
P357_PLAN
 62
     7
100
AcDbLine
 10
-47.224163
 20
21.255981
 30
0.0
 11
-47.224163
 21
-57.970536
 31
0.0
  0
LINE
  5
74
100
AcDbEntity
  8
P357_PLAN
 62
     7
100
AcDbLine
 10
47.223991
 20
57.970536
 30
0.0
 11
47.223991
 21
-57.970536
 31
0.0
  0
LINE
  5
73
100
AcDbEntity
  8
P357_PLAN
 62
     7
100
AcDbLine
 10
-47.224163
 20
-57.26498
 30
0.0
 11
47.223991
 21
-57.26498
 31
0.0
  0
POLYLINE
  5
6E
100
AcDbEntity
  8
P357_PLAN
 62
     7
100
AcDb2dPolyline
 66
     1
 10
0.0
 20
0.0
 30
0.0
 70
     1
  0
VERTEX
  5
6F
100
AcDbEntity
  8
P357_PLAN
 62
     7
100
AcDbVertex
100
AcDb2dVertex
 10
-45.537272
 20
-57.780711
 30
0.0
  0
VERTEX
  5
70
100
AcDbEntity
  8
P357_PLAN
 62
     7
100
AcDbVertex
100
AcDb2dVertex
 10
-47.224163
 20
-57.26498
 30
0.0
  0
VERTEX
  5
71
100
AcDbEntity
  8
P357_PLAN
 62
     7
100
AcDbVertex
100
AcDb2dVertex
 10
-45.537272
 20
-56.749249
 30
0.0
  0
SEQEND
  5
72
100
AcDbEntity
  8
P357_PLAN
 62
     7
  0
HATCH
  5
6D
100
AcDbEntity
  8
P357_PLAN
 62
     7
100
AcDbHatch
 10
0.0
 20
0.0
 30
0.0
210
0.0
220
0.0
230
1.0
  2
SOLID
 70
     1
 71
     0
 91
        1
 92
        3
 72
     0
 73
     1
 93
        3
 10
-45.53727213541666
 20
-57.78071085611979
 10
-47.22416314019096
 20
-57.26498006184895
 10
-45.53727213541666
 20
-56.74924926757812
 97
        0
 75
     0
 76
     1
 98
        1
 10
0.0
 20
0.0
  0
POLYLINE
  5
68
100
AcDbEntity
  8
P357_PLAN
 62
     7
100
AcDb2dPolyline
 66
     1
 10
0.0
 20
0.0
 30
0.0
 70
     1
  0
VERTEX
  5
69
100
AcDbEntity
  8
P357_PLAN
 62
     7
100
AcDbVertex
100
AcDb2dVertex
 10
45.537272
 20
-56.749249
 30
0.0
  0
VERTEX
  5
6A
100
AcDbEntity
  8
P357_PLAN
 62
     7
100
AcDbVertex
100
AcDb2dVertex
 10
47.223991
 20
-57.26498
 30
0.0
  0
VERTEX
  5
6B
100
AcDbEntity
  8
P357_PLAN
 62
     7
100
AcDbVertex
100
AcDb2dVertex
 10
45.537272
 20
-57.780711
 30
0.0
  0
SEQEND
  5
6C
100
AcDbEntity
  8
P357_PLAN
 62
     7
  0
HATCH
  5
67
100
AcDbEntity
  8
P357_PLAN
 62
     7
100
AcDbHatch
 10
0.0
 20
0.0
 30
0.0
210
0.0
220
0.0
230
1.0
  2
SOLID
 70
     1
 71
     0
 91
        1
 92
        3
 72
     0
 73
     1
 93
        3
 10
45.53727213541666
 20
-56.74924926757812
 10
47.22399088541666
 20
-57.26498006184895
 10
45.53727213541666
 20
-57.78071085611979
 97
        0
 75
     0
 76
     1
 98
        1
 10
0.0
 20
0.0
  0
ENDBLK
  5
77
100
AcDbEntity
  8
P357_PLAN
100
AcDbBlockEnd
  0
BLOCK
  5
7A
100
AcDbEntity
  8
P357_PLAN
 62
     7
100
AcDbBlockBegin
  2
AI9-BLK5
 70
     0
 10
0.0
 20
0.0
 30
0.0
  3
AI9-BLK5
  1

  0
MTEXT
  5
89
100
AcDbEntity
  8
P357_PLAN
 62
     7
100
AcDbMText
 10
-4.03214
 20
-24.840262
 30
0.0
 40
2.099868
 41
0.0
 71
     1
 72
     2
  1
\fArial|b0|i0;76.69"
  7
STD
 11
1.000001
 21
0.0
 31
0.0
  0
LINE
  5
88
100
AcDbEntity
  8
P357_PLAN
 62
     7
100
AcDbLine
 10
24.349246
 20
28.351241
 30
0.0
 11
24.349246
 21
-28.351241
 31
0.0
  0
LINE
  5
87
100
AcDbEntity
  8
P357_PLAN
 62
     7
100
AcDbLine
 10
-24.349246
 20
-27.645685
 30
0.0
 11
24.349246
 21
-27.645685
 31
0.0
  0
POLYLINE
  5
82
100
AcDbEntity
  8
P357_PLAN
 62
     7
100
AcDb2dPolyline
 66
     1
 10
0.0
 20
0.0
 30
0.0
 70
     1
  0
VERTEX
  5
83
100
AcDbEntity
  8
P357_PLAN
 62
     7
100
AcDbVertex
100
AcDb2dVertex
 10
-22.662527
 20
-28.161416
 30
0.0
  0
VERTEX
  5
84
100
AcDbEntity
  8
P357_PLAN
 62
     7
100
AcDbVertex
100
AcDb2dVertex
 10
-24.349246
 20
-27.645685
 30
0.0
  0
VERTEX
  5
85
100
AcDbEntity
  8
P357_PLAN
 62
     7
100
AcDbVertex
100
AcDb2dVertex
 10
-22.662527
 20
-27.129955
 30
0.0
  0
SEQEND
  5
86
100
AcDbEntity
  8
P357_PLAN
 62
     7
  0
HATCH
  5
81
100
AcDbEntity
  8
P357_PLAN
 62
     7
100
AcDbHatch
 10
0.0
 20
0.0
 30
0.0
210
0.0
220
0.0
230
1.0
  2
SOLID
 70
     1
 71
     0
 91
        1
 92
        3
 72
     0
 73
     1
 93
        3
 10
-22.6625271267361
 20
-28.16141628689235
 10
-24.34924587673611
 20
-27.64568549262152
 10
-22.6625271267361
 20
-27.12995469835069
 97
        0
 75
     0
 76
     1
 98
        1
 10
0.0
 20
0.0
  0
POLYLINE
  5
7C
100
AcDbEntity
  8
P357_PLAN
 62
     7
100
AcDb2dPolyline
 66
     1
 10
0.0
 20
0.0
 30
0.0
 70
     1
  0
VERTEX
  5
7D
100
AcDbEntity
  8
P357_PLAN
 62
     7
100
AcDbVertex
100
AcDb2dVertex
 10
22.662527
 20
-27.129955
 30
0.0
  0
VERTEX
  5
7E
100
AcDbEntity
  8
P357_PLAN
 62
     7
100
AcDbVertex
100
AcDb2dVertex
 10
24.349246
 20
-27.645685
 30
0.0
  0
VERTEX
  5
7F
100
AcDbEntity
  8
P357_PLAN
 62
     7
100
AcDbVertex
100
AcDb2dVertex
 10
22.662527
 20
-28.161416
 30
0.0
  0
SEQEND
  5
80
100
AcDbEntity
  8
P357_PLAN
 62
     7
  0
HATCH
  5
7B
100
AcDbEntity
  8
P357_PLAN
 62
     7
100
AcDbHatch
 10
0.0
 20
0.0
 30
0.0
210
0.0
220
0.0
230
1.0
  2
SOLID
 70
     1
 71
     0
 91
        1
 92
        3
 72
     0
 73
     1
 93
        3
 10
22.6625271267361
 20
-27.12995469835069
 10
24.34924587673611
 20
-27.64568549262152
 10
22.6625271267361
 20
-28.16141628689235
 97
        0
 75
     0
 76
     1
 98
        1
 10
0.0
 20
0.0
  0
ENDBLK
  5
8A
100
AcDbEntity
  8
P357_PLAN
100
AcDbBlockEnd
  0
BLOCK
  5
8D
100
AcDbEntity
  8
P357_PLAN
 62
     7
100
AcDbBlockBegin
  2
AI9-BLK6
 70
     0
 10
0.0
 20
0.0
 30
0.0
  3
AI9-BLK6
  1

  0
MTEXT
  5
9C
100
AcDbEntity
  8
P357_PLAN
 62
     7
100
AcDbMText
 10
-4.03214
 20
-24.94396
 30
0.0
 40
2.099868
 41
0.0
 71
     1
 72
     2
  1
\fArial|b0|i0;72.05"
  7
STD
 11
1.000001
 21
0.0
 31
0.0
  0
LINE
  5
9B
100
AcDbEntity
  8
P357_PLAN
 62
     7
100
AcDbLine
 10
-22.874917
 20
28.454938
 30
0.0
 11
-22.874917
 21
-28.454938
 31
0.0
  0
LINE
  5
9A
100
AcDbEntity
  8
P357_PLAN
 62
     7
100
AcDbLine
 10
-22.874917
 20
-27.749383
 30
0.0
 11
22.874745
 21
-27.749383
 31
0.0
  0
POLYLINE
  5
95
100
AcDbEntity
  8
P357_PLAN
 62
     7
100
AcDb2dPolyline
 66
     1
 10
0.0
 20
0.0
 30
0.0
 70
     1
  0
VERTEX
  5
96
100
AcDbEntity
  8
P357_PLAN
 62
     7
100
AcDbVertex
100
AcDb2dVertex
 10
-21.188026
 20
-28.265114
 30
0.0
  0
VERTEX
  5
97
100
AcDbEntity
  8
P357_PLAN
 62
     7
100
AcDbVertex
100
AcDb2dVertex
 10
-22.874917
 20
-27.749383
 30
0.0
  0
VERTEX
  5
98
100
AcDbEntity
  8
P357_PLAN
 62
     7
100
AcDbVertex
100
AcDb2dVertex
 10
-21.188026
 20
-27.233652
 30
0.0
  0
SEQEND
  5
99
100
AcDbEntity
  8
P357_PLAN
 62
     7
  0
HATCH
  5
94
100
AcDbEntity
  8
P357_PLAN
 62
     7
100
AcDbHatch
 10
0.0
 20
0.0
 30
0.0
210
0.0
220
0.0
230
1.0
  2
SOLID
 70
     1
 71
     0
 91
        1
 92
        3
 72
     0
 73
     1
 93
        3
 10
-21.18802625868055
 20
-28.2651136610243
 10
-22.87491726345485
 20
-27.74938286675347
 10
-21.18802625868055
 20
-27.23365207248264
 97
        0
 75
     0
 76
     1
 98
        1
 10
0.0
 20
0.0
  0
POLYLINE
  5
8F
100
AcDbEntity
  8
P357_PLAN
 62
     7
100
AcDb2dPolyline
 66
     1
 10
0.0
 20
0.0
 30
0.0
 70
     1
  0
VERTEX
  5
90
100
AcDbEntity
  8
P357_PLAN
 62
     7
100
AcDbVertex
100
AcDb2dVertex
 10
21.188026
 20
-27.233652
 30
0.0
  0
VERTEX
  5
91
100
AcDbEntity
  8
P357_PLAN
 62
     7
100
AcDbVertex
100
AcDb2dVertex
 10
22.874745
 20
-27.749383
 30
0.0
  0
VERTEX
  5
92
100
AcDbEntity
  8
P357_PLAN
 62
     7
100
AcDbVertex
100
AcDb2dVertex
 10
21.188026
 20
-28.265114
 30
0.0
  0
SEQEND
  5
93
100
AcDbEntity
  8
P357_PLAN
 62
     7
  0
HATCH
  5
8E
100
AcDbEntity
  8
P357_PLAN
 62
     7
100
AcDbHatch
 10
0.0
 20
0.0
 30
0.0
210
0.0
220
0.0
230
1.0
  2
SOLID
 70
     1
 71
     0
 91
        1
 92
        3
 72
     0
 73
     1
 93
        3
 10
21.18802625868055
 20
-27.23365207248264
 10
22.87474500868055
 20
-27.74938286675347
 10
21.18802625868055
 20
-28.2651136610243
 97
        0
 75
     0
 76
     1
 98
        1
 10
0.0
 20
0.0
  0
ENDBLK
  5
9D
100
AcDbEntity
  8
P357_PLAN
100
AcDbBlockEnd
  0
BLOCK
  5
A3
100
AcDbEntity
  8
P357_PLAN
 62
     7
100
AcDbBlockBegin
  2
AI9-BLK7
 70
     0
 10
0.0
 20
0.0
 30
0.0
  3
AI9-BLK7
  1

  0
LINE
  5
B4
100
AcDbEntity
  8
P357_PLAN
 62
     7
100
AcDbLine
 10
-10.787111
 20
-16.39564
 30
0.0
 11
-4.771974
 21
-18.901086
 31
0.0
  0
LINE
  5
B3
100
AcDbEntity
  8
P357_PLAN
 62
     7
100
AcDbLine
 10
3.913801
 20
18.901086
 30
0.0
 11
9.928937
 21
16.39564
 31
0.0
  0
MTEXT
  5
B2
100
AcDbEntity
  8
P357_PLAN
 62
     7
100
AcDbMText
 10
-2.045014
 20
-12.219799
 30
0.0
 40
2.099868
 41
0.0
 71
     1
 72
     2
  1
\fArial|b0|i0;Adjustable 50" to 90" 
  7
STD
 11
0.3845
 21
0.9231
 31
0.0
  0
MTEXT
  5
B1
100
AcDbEntity
  8
P357_PLAN
 62
     7
100
AcDbMText
 10
-1.507579
 20
-2.213691
 30
0.0
 40
2.099868
 41
0.0
 71
     1
 72
     2
  1
\fArial|b0|i0;60.21"
  7
STD
 11
0.3845
 21
0.9231
 31
0.0
  0
LINE
  5
B0
100
AcDbEntity
  8
P357_PLAN
 62
     7
100
AcDbLine
 10
-5.423786
 20
-18.629784
 30
0.0
 11
9.277814
 21
16.666941
 31
0.0
  0
POLYLINE
  5
AB
100
AcDbEntity
  8
P357_PLAN
 62
     7
100
AcDb2dPolyline
 66
     1
 10
0.0
 20
0.0
 30
0.0
 70
     1
  0
VERTEX
  5
AC
100
AcDbEntity
  8
P357_PLAN
 62
     7
100
AcDbVertex
100
AcDb2dVertex
 10
-4.298618
 20
-17.270867
 30
0.0
  0
VERTEX
  5
AD
100
AcDbEntity
  8
P357_PLAN
 62
     7
100
AcDbVertex
100
AcDb2dVertex
 10
-5.423786
 20
-18.629784
 30
0.0
  0
VERTEX
  5
AE
100
AcDbEntity
  8
P357_PLAN
 62
     7
100
AcDbVertex
100
AcDb2dVertex
 10
-5.250842
 20
-16.874336
 30
0.0
  0
SEQEND
  5
AF
100
AcDbEntity
  8
P357_PLAN
 62
     7
  0
HATCH
  5
AA
100
AcDbEntity
  8
P357_PLAN
 62
     7
100
AcDbHatch
 10
0.0
 20
0.0
 30
0.0
210
0.0
220
0.0
230
1.0
  2
SOLID
 70
     1
 71
     0
 91
        1
 92
        3
 72
     0
 73
     1
 93
        3
 10
-4.298617892795138
 20
-17.27086656358506
 10
-5.423786078559027
 20
-18.62978447808159
 10
-5.250842285156249
 20
-16.87433607313368
 97
        0
 75
     0
 76
     1
 98
        1
 10
0.0
 20
0.0
  0
POLYLINE
  5
A5
100
AcDbEntity
  8
P357_PLAN
 62
     7
100
AcDb2dPolyline
 66
     1
 10
0.0
 20
0.0
 30
0.0
 70
     1
  0
VERTEX
  5
A6
100
AcDbEntity
  8
P357_PLAN
 62
     7
100
AcDbVertex
100
AcDb2dVertex
 10
8.153335
 20
15.308196
 30
0.0
  0
VERTEX
  5
A7
100
AcDbEntity
  8
P357_PLAN
 62
     7
100
AcDbVertex
100
AcDb2dVertex
 10
9.277814
 20
16.666941
 30
0.0
  0
VERTEX
  5
A8
100
AcDbEntity
  8
P357_PLAN
 62
     7
100
AcDbVertex
100
AcDb2dVertex
 10
9.10556
 20
14.911493
 30
0.0
  0
SEQEND
  5
A9
100
AcDbEntity
  8
P357_PLAN
 62
     7
  0
HATCH
  5
A4
100
AcDbEntity
  8
P357_PLAN
 62
     7
100
AcDbHatch
 10
0.0
 20
0.0
 30
0.0
210
0.0
220
0.0
230
1.0
  2
SOLID
 70
     1
 71
     0
 91
        1
 92
        3
 72
     0
 73
     1
 93
        3
 10
8.15333523220486
 20
15.30819566514757
 10
9.277814398871527
 20
16.66694132486979
 10
9.105559624565971
 20
14.91149291992187
 97
        0
 75
     0
 76
     1
 98
        1
 10
0.0
 20
0.0
  0
ENDBLK
  5
B5
100
AcDbEntity
  8
P357_PLAN
100
AcDbBlockEnd
  0
BLOCK
  5
BA
100
AcDbEntity
  8
P357_PLAN
 62
     7
100
AcDbBlockBegin
  2
AI9-BLK8
 70
     0
 10
0.0
 20
0.0
 30
0.0
  3
AI9-BLK8
  1

  0
MTEXT
  5
CB
100
AcDbEntity
  8
P357_PLAN
 62
     7
100
AcDbMText
 10
-4.03214
 20
1.658206
 30
0.0
 40
2.099868
 41
0.0
 71
     1
 72
     2
  1
\fArial|b0|i0;27.56"
  7
STD
 11
1.000001
 21
0.0
 31
0.0
  0
LINE
  5
CA
100
AcDbEntity
  8
P357_PLAN
 62
     7
100
AcDbLine
 10
-8.749854
 20
-2.088417
 30
0.0
 11
-8.749854
 21
2.027783
 31
0.0
  0
LINE
  5
C9
100
AcDbEntity
  8
P357_PLAN
 62
     7
100
AcDbLine
 10
8.749854
 20
-2.088417
 30
0.0
 11
8.749854
 21
2.027783
 31
0.0
  0
LINE
  5
C8
100
AcDbEntity
  8
P357_PLAN
 62
     7
100
AcDbLine
 10
-12.277631
 20
1.322228
 30
0.0
 11
-8.749854
 21
1.322228
 31
0.0
  0
LINE
  5
C7
100
AcDbEntity
  8
P357_PLAN
 62
     7
100
AcDbLine
 10
8.749854
 20
1.322228
 30
0.0
 11
12.277631
 21
1.322228
 31
0.0
  0
POLYLINE
  5
C2
100
AcDbEntity
  8
P357_PLAN
 62
     7
100
AcDb2dPolyline
 66
     1
 10
0.0
 20
0.0
 30
0.0
 70
     1
  0
VERTEX
  5
C3
100
AcDbEntity
  8
P357_PLAN
 62
     7
100
AcDbVertex
100
AcDb2dVertex
 10
-10.436572
 20
1.837958
 30
0.0
  0
VERTEX
  5
C4
100
AcDbEntity
  8
P357_PLAN
 62
     7
100
AcDbVertex
100
AcDb2dVertex
 10
-8.749854
 20
1.322228
 30
0.0
  0
VERTEX
  5
C5
100
AcDbEntity
  8
P357_PLAN
 62
     7
100
AcDbVertex
100
AcDb2dVertex
 10
-10.436572
 20
0.806497
 30
0.0
  0
SEQEND
  5
C6
100
AcDbEntity
  8
P357_PLAN
 62
     7
  0
HATCH
  5
C1
100
AcDbEntity
  8
P357_PLAN
 62
     7
100
AcDbHatch
 10
0.0
 20
0.0
 30
0.0
210
0.0
220
0.0
230
1.0
  2
SOLID
 70
     1
 71
     0
 91
        1
 92
        3
 72
     0
 73
     1
 93
        3
 10
-10.43657226562499
 20
1.837958441840277
 10
-8.749853515624998
 20
1.322227647569444
 10
-10.43657226562499
 20
0.806496853298611
 97
        0
 75
     0
 76
     1
 98
        1
 10
0.0
 20
0.0
  0
POLYLINE
  5
BC
100
AcDbEntity
  8
P357_PLAN
 62
     7
100
AcDb2dPolyline
 66
     1
 10
0.0
 20
0.0
 30
0.0
 70
     1
  0
VERTEX
  5
BD
100
AcDbEntity
  8
P357_PLAN
 62
     7
100
AcDbVertex
100
AcDb2dVertex
 10
10.436572
 20
0.806497
 30
0.0
  0
VERTEX
  5
BE
100
AcDbEntity
  8
P357_PLAN
 62
     7
100
AcDbVertex
100
AcDb2dVertex
 10
8.749854
 20
1.322228
 30
0.0
  0
VERTEX
  5
BF
100
AcDbEntity
  8
P357_PLAN
 62
     7
100
AcDbVertex
100
AcDb2dVertex
 10
10.436572
 20
1.837958
 30
0.0
  0
SEQEND
  5
C0
100
AcDbEntity
  8
P357_PLAN
 62
     7
  0
HATCH
  5
BB
100
AcDbEntity
  8
P357_PLAN
 62
     7
100
AcDbHatch
 10
0.0
 20
0.0
 30
0.0
210
0.0
220
0.0
230
1.0
  2
SOLID
 70
     1
 71
     0
 91
        1
 92
        3
 72
     0
 73
     1
 93
        3
 10
10.43657226562499
 20
0.806496853298611
 10
8.749853515624998
 20
1.322227647569444
 10
10.43657226562499
 20
1.837958441840277
 97
        0
 75
     0
 76
     1
 98
        1
 10
0.0
 20
0.0
  0
ENDBLK
  5
CC
100
AcDbEntity
  8
P357_PLAN
100
AcDbBlockEnd
  0
BLOCK
  5
CF
100
AcDbEntity
  8
P357_PLAN
 62
     7
100
AcDbBlockBegin
  2
AI9-BLK9
 70
     0
 10
0.0
 20
0.0
 30
0.0
  3
AI9-BLK9
  1

  0
MTEXT
  5
DF
100
AcDbEntity
  8
P357_PLAN
 62
     7
100
AcDbMText
 10
-8.421278
 20
1.131796
 30
0.0
 40
2.099868
 41
0.0
 71
     1
 72
     2
  1
\fArial|b0|i0;5.04"
  7
STD
 11
1.000001
 21
0.0
 31
0.0
  0
LINE
  5
DE
100
AcDbEntity
  8
P357_PLAN
 62
     7
100
AcDbLine
 10
1.691628
 20
-0.159163
 30
0.0
 11
1.691628
 21
0.443039
 31
0.0
  0
LINE
  5
DD
100
AcDbEntity
  8
P357_PLAN
 62
     7
100
AcDbLine
 10
-1.835978
 20
-0.262516
 30
0.0
 11
1.691628
 21
-0.262516
 31
0.0
  0
LINE
  5
DC
100
AcDbEntity
  8
P357_PLAN
 62
     7
100
AcDbLine
 10
4.8935
 20
-0.262516
 30
0.0
 11
8.421278
 21
-0.262516
 31
0.0
  0
POLYLINE
  5
D7
100
AcDbEntity
  8
P357_PLAN
 62
     7
100
AcDb2dPolyline
 66
     1
 10
0.0
 20
0.0
 30
0.0
 70
     1
  0
VERTEX
  5
D8
100
AcDbEntity
  8
P357_PLAN
 62
     7
100
AcDbVertex
100
AcDb2dVertex
 10
0.004909
 20
0.253215
 30
0.0
  0
VERTEX
  5
D9
100
AcDbEntity
  8
P357_PLAN
 62
     7
100
AcDbVertex
100
AcDb2dVertex
 10
1.691628
 20
-0.262516
 30
0.0
  0
VERTEX
  5
DA
100
AcDbEntity
  8
P357_PLAN
 62
     7
100
AcDbVertex
100
AcDb2dVertex
 10
0.004909
 20
-0.778247
 30
0.0
  0
SEQEND
  5
DB
100
AcDbEntity
  8
P357_PLAN
 62
     7
  0
HATCH
  5
D6
100
AcDbEntity
  8
P357_PLAN
 62
     7
100
AcDbHatch
 10
0.0
 20
0.0
 30
0.0
210
0.0
220
0.0
230
1.0
  2
SOLID
 70
     1
 71
     0
 91
        1
 92
        3
 72
     0
 73
     1
 93
        3
 10
0.0049092610677083
 20
0.2532145182291666
 10
1.691628011067708
 20
-0.2625162760416666
 10
0.0049092610677083
 20
-0.7782470703125
 97
        0
 75
     0
 76
     1
 98
        1
 10
0.0
 20
0.0
  0
POLYLINE
  5
D1
100
AcDbEntity
  8
P357_PLAN
 62
     7
100
AcDb2dPolyline
 66
     1
 10
0.0
 20
0.0
 30
0.0
 70
     1
  0
VERTEX
  5
D2
100
AcDbEntity
  8
P357_PLAN
 62
     7
100
AcDbVertex
100
AcDb2dVertex
 10
6.580219
 20
-0.778247
 30
0.0
  0
VERTEX
  5
D3
100
AcDbEntity
  8
P357_PLAN
 62
     7
100
AcDbVertex
100
AcDb2dVertex
 10
4.8935
 20
-0.262516
 30
0.0
  0
VERTEX
  5
D4
100
AcDbEntity
  8
P357_PLAN
 62
     7
100
AcDbVertex
100
AcDb2dVertex
 10
6.580219
 20
0.253215
 30
0.0
  0
SEQEND
  5
D5
100
AcDbEntity
  8
P357_PLAN
 62
     7
  0
HATCH
  5
D0
100
AcDbEntity
  8
P357_PLAN
 62
     7
100
AcDbHatch
 10
0.0
 20
0.0
 30
0.0
210
0.0
220
0.0
230
1.0
  2
SOLID
 70
     1
 71
     0
 91
        1
 92
        3
 72
     0
 73
     1
 93
        3
 10
6.580218505859374
 20
-0.7782470703125
 10
4.893499755859374
 20
-0.2625162760416666
 10
6.580218505859374
 20
0.2532145182291666
 97
        0
 75
     0
 76
     1
 98
        1
 10
0.0
 20
0.0
  0
ENDBLK
  5
E0
100
AcDbEntity
  8
P357_PLAN
100
AcDbBlockEnd
  0
BLOCK
  5
E3
100
AcDbEntity
  8
P357_PLAN
 62
     7
100
AcDbBlockBegin
  2
AI9-BLK10
 70
     0
 10
0.0
 20
0.0
 30
0.0
  3
AI9-BLK10
  1

  0
MTEXT
  5
F1
100
AcDbEntity
  8
P357_PLAN
 62
     7
100
AcDbMText
 10
-1.467951
 20
-0.151584
 30
0.0
 40
2.099868
 41
0.0
 71
     1
 72
     2
  1
\fArial|b0|i0;49.21"
  7
STD
 11
0.0
 21
1.0
 31
0.0
  0
LINE
  5
F0
100
AcDbEntity
  8
P357_PLAN
 62
     7
100
AcDbLine
 10
1.337472
 20
15.625058
 30
0.0
 11
1.337472
 21
-15.625058
 31
0.0
  0
POLYLINE
  5
EB
100
AcDbEntity
  8
P357_PLAN
 62
     7
100
AcDb2dPolyline
 66
     1
 10
0.0
 20
0.0
 30
0.0
 70
     1
  0
VERTEX
  5
EC
100
AcDbEntity
  8
P357_PLAN
 62
     7
100
AcDbVertex
100
AcDb2dVertex
 10
0.821741
 20
13.938167
 30
0.0
  0
VERTEX
  5
ED
100
AcDbEntity
  8
P357_PLAN
 62
     7
100
AcDbVertex
100
AcDb2dVertex
 10
1.337472
 20
15.625058
 30
0.0
  0
VERTEX
  5
EE
100
AcDbEntity
  8
P357_PLAN
 62
     7
100
AcDbVertex
100
AcDb2dVertex
 10
1.853203
 20
13.938167
 30
0.0
  0
SEQEND
  5
EF
100
AcDbEntity
  8
P357_PLAN
 62
     7
  0
HATCH
  5
EA
100
AcDbEntity
  8
P357_PLAN
 62
     7
100
AcDbHatch
 10
0.0
 20
0.0
 30
0.0
210
0.0
220
0.0
230
1.0
  2
SOLID
 70
     1
 71
     0
 91
        1
 92
        3
 72
     0
 73
     1
 93
        3
 10
0.8217414008246526
 20
13.93816731770833
 10
1.337472195095485
 20
15.62505832248263
 10
1.853202989366319
 20
13.93816731770833
 97
        0
 75
     0
 76
     1
 98
        1
 10
0.0
 20
0.0
  0
POLYLINE
  5
E5
100
AcDbEntity
  8
P357_PLAN
 62
     7
100
AcDb2dPolyline
 66
     1
 10
0.0
 20
0.0
 30
0.0
 70
     1
  0
VERTEX
  5
E6
100
AcDbEntity
  8
P357_PLAN
 62
     7
100
AcDbVertex
100
AcDb2dVertex
 10
1.853203
 20
-13.938167
 30
0.0
  0
VERTEX
  5
E7
100
AcDbEntity
  8
P357_PLAN
 62
     7
100
AcDbVertex
100
AcDb2dVertex
 10
1.337472
 20
-15.625058
 30
0.0
  0
VERTEX
  5
E8
100
AcDbEntity
  8
P357_PLAN
 62
     7
100
AcDbVertex
100
AcDb2dVertex
 10
0.821741
 20
-13.938167
 30
0.0
  0
SEQEND
  5
E9
100
AcDbEntity
  8
P357_PLAN
 62
     7
  0
HATCH
  5
E4
100
AcDbEntity
  8
P357_PLAN
 62
     7
100
AcDbHatch
 10
0.0
 20
0.0
 30
0.0
210
0.0
220
0.0
230
1.0
  2
SOLID
 70
     1
 71
     0
 91
        1
 92
        3
 72
     0
 73
     1
 93
        3
 10
1.853202989366319
 20
-13.93816731770833
 10
1.337472195095485
 20
-15.62505832248263
 10
0.8217414008246526
 20
-13.93816731770833
 97
        0
 75
     0
 76
     1
 98
        1
 10
0.0
 20
0.0
  0
ENDBLK
  5
F2
100
AcDbEntity
  8
P357_PLAN
100
AcDbBlockEnd
  0
BLOCK
  5
F5
100
AcDbEntity
  8
P357_PLAN
 62
     7
100
AcDbBlockBegin
  2
AI9-BLK11
 70
     0
 10
0.0
 20
0.0
 30
0.0
  3
AI9-BLK11
  1

  0
MTEXT
  5
105
100
AcDbEntity
  8
P357_PLAN
 62
     7
100
AcDbMText
 10
-3.162852
 20
-4.737695
 30
0.0
 40
2.099868
 41
0.0
 71
     1
 72
     2
  1
\fArial|b0|i0;31.39"
  7
STD
 11
0.0
 21
1.0
 31
0.0
  0
LINE
  5
104
100
AcDbEntity
  8
P357_PLAN
 62
     7
100
AcDbLine
 10
1.298284
 20
9.966317
 30
0.0
 11
-1.062984
 21
9.966317
 31
0.0
  0
LINE
  5
103
100
AcDbEntity
  8
P357_PLAN
 62
     7
100
AcDbLine
 10
3.593062
 20
-9.966317
 30
0.0
 11
-1.062984
 21
-9.966317
 31
0.0
  0
LINE
  5
102
100
AcDbEntity
  8
P357_PLAN
 62
     7
100
AcDbLine
 10
-0.357429
 20
9.966317
 30
0.0
 11
-0.357429
 21
-9.966317
 31
0.0
  0
POLYLINE
  5
FD
100
AcDbEntity
  8
P357_PLAN
 62
     7
100
AcDb2dPolyline
 66
     1
 10
0.0
 20
0.0
 30
0.0
 70
     1
  0
VERTEX
  5
FE
100
AcDbEntity
  8
P357_PLAN
 62
     7
100
AcDbVertex
100
AcDb2dVertex
 10
-0.873159
 20
8.279426
 30
0.0
  0
VERTEX
  5
FF
100
AcDbEntity
  8
P357_PLAN
 62
     7
100
AcDbVertex
100
AcDb2dVertex
 10
-0.357429
 20
9.966317
 30
0.0
  0
VERTEX
  5
100
100
AcDbEntity
  8
P357_PLAN
 62
     7
100
AcDbVertex
100
AcDb2dVertex
 10
0.158302
 20
8.279426
 30
0.0
  0
SEQEND
  5
101
100
AcDbEntity
  8
P357_PLAN
 62
     7
  0
HATCH
  5
FC
100
AcDbEntity
  8
P357_PLAN
 62
     7
100
AcDbHatch
 10
0.0
 20
0.0
 30
0.0
210
0.0
220
0.0
230
1.0
  2
SOLID
 70
     1
 71
     0
 91
        1
 92
        3
 72
     0
 73
     1
 93
        3
 10
-0.873159450954861
 20
8.279425726996526
 10
-0.3574286566840277
 20
9.966316731770833
 10
0.1583021375868055
 20
8.279425726996526
 97
        0
 75
     0
 76
     1
 98
        1
 10
0.0
 20
0.0
  0
POLYLINE
  5
F7
100
AcDbEntity
  8
P357_PLAN
 62
     7
100
AcDb2dPolyline
 66
     1
 10
0.0
 20
0.0
 30
0.0
 70
     1
  0
VERTEX
  5
F8
100
AcDbEntity
  8
P357_PLAN
 62
     7
100
AcDbVertex
100
AcDb2dVertex
 10
0.158302
 20
-8.279426
 30
0.0
  0
VERTEX
  5
F9
100
AcDbEntity
  8
P357_PLAN
 62
     7
100
AcDbVertex
100
AcDb2dVertex
 10
-0.357429
 20
-9.966317
 30
0.0
  0
VERTEX
  5
FA
100
AcDbEntity
  8
P357_PLAN
 62
     7
100
AcDbVertex
100
AcDb2dVertex
 10
-0.873159
 20
-8.279426
 30
0.0
  0
SEQEND
  5
FB
100
AcDbEntity
  8
P357_PLAN
 62
     7
  0
HATCH
  5
F6
100
AcDbEntity
  8
P357_PLAN
 62
     7
100
AcDbHatch
 10
0.0
 20
0.0
 30
0.0
210
0.0
220
0.0
230
1.0
  2
SOLID
 70
     1
 71
     0
 91
        1
 92
        3
 72
     0
 73
     1
 93
        3
 10
0.1583021375868055
 20
-8.279425726996526
 10
-0.3574286566840277
 20
-9.966316731770833
 10
-0.873159450954861
 20
-8.279425726996526
 97
        0
 75
     0
 76
     1
 98
        1
 10
0.0
 20
0.0
  0
ENDBLK
  5
106
100
AcDbEntity
  8
P357_PLAN
100
AcDbBlockEnd
  0
BLOCK
  5
109
100
AcDbEntity
  8
P357_PLAN
 62
     7
100
AcDbBlockBegin
  2
AI9-BLK12
 70
     0
 10
0.0
 20
0.0
 30
0.0
  3
AI9-BLK12
  1

  0
MTEXT
  5
119
100
AcDbEntity
  8
P357_PLAN
 62
     7
100
AcDbMText
 10
-59.67327
 20
-15.487599
 30
0.0
 40
2.099868
 41
0.0
 71
     1
 72
     2
  1
\fArial|b0|i0;177.84" Pega 357 length
  7
STD
 11
0.0
 21
1.0
 31
0.0
  0
LINE
  5
118
100
AcDbEntity
  8
P357_PLAN
 62
     7
100
AcDbLine
 10
60.10348
 20
56.462703
 30
0.0
 11
-57.573402
 21
56.462703
 31
0.0
  0
LINE
  5
117
100
AcDbEntity
  8
P357_PLAN
 62
     7
100
AcDbLine
 10
52.479829
 20
-56.462531
 30
0.0
 11
-57.573402
 21
-56.462531
 31
0.0
  0
LINE
  5
116
100
AcDbEntity
  8
P357_PLAN
 62
     7
100
AcDbLine
 10
-56.867847
 20
56.462703
 30
0.0
 11
-56.867847
 21
-56.462531
 31
0.0
  0
POLYLINE
  5
111
100
AcDbEntity
  8
P357_PLAN
 62
     7
100
AcDb2dPolyline
 66
     1
 10
0.0
 20
0.0
 30
0.0
 70
     1
  0
VERTEX
  5
112
100
AcDbEntity
  8
P357_PLAN
 62
     7
100
AcDbVertex
100
AcDb2dVertex
 10
-57.383577
 20
54.775812
 30
0.0
  0
VERTEX
  5
113
100
AcDbEntity
  8
P357_PLAN
 62
     7
100
AcDbVertex
100
AcDb2dVertex
 10
-56.867847
 20
56.462703
 30
0.0
  0
VERTEX
  5
114
100
AcDbEntity
  8
P357_PLAN
 62
     7
100
AcDbVertex
100
AcDb2dVertex
 10
-56.352116
 20
54.775812
 30
0.0
  0
SEQEND
  5
115
100
AcDbEntity
  8
P357_PLAN
 62
     7
  0
HATCH
  5
110
100
AcDbEntity
  8
P357_PLAN
 62
     7
100
AcDbHatch
 10
0.0
 20
0.0
 30
0.0
210
0.0
220
0.0
230
1.0
  2
SOLID
 70
     1
 71
     0
 91
        1
 92
        3
 72
     0
 73
     1
 93
        3
 10
-57.38357747395832
 20
54.77581244574652
 10
-56.86784667968749
 20
56.46270345052083
 10
-56.35211588541666
 20
54.77581244574652
 97
        0
 75
     0
 76
     1
 98
        1
 10
0.0
 20
0.0
  0
POLYLINE
  5
10B
100
AcDbEntity
  8
P357_PLAN
 62
     7
100
AcDb2dPolyline
 66
     1
 10
0.0
 20
0.0
 30
0.0
 70
     1
  0
VERTEX
  5
10C
100
AcDbEntity
  8
P357_PLAN
 62
     7
100
AcDbVertex
100
AcDb2dVertex
 10
-56.352116
 20
-54.775812
 30
0.0
  0
VERTEX
  5
10D
100
AcDbEntity
  8
P357_PLAN
 62
     7
100
AcDbVertex
100
AcDb2dVertex
 10
-56.867847
 20
-56.462531
 30
0.0
  0
VERTEX
  5
10E
100
AcDbEntity
  8
P357_PLAN
 62
     7
100
AcDbVertex
100
AcDb2dVertex
 10
-57.383577
 20
-54.775812
 30
0.0
  0
SEQEND
  5
10F
100
AcDbEntity
  8
P357_PLAN
 62
     7
  0
HATCH
  5
10A
100
AcDbEntity
  8
P357_PLAN
 62
     7
100
AcDbHatch
 10
0.0
 20
0.0
 30
0.0
210
0.0
220
0.0
230
1.0
  2
SOLID
 70
     1
 71
     0
 91
        1
 92
        3
 72
     0
 73
     1
 93
        3
 10
-56.35211588541666
 20
-54.77581244574652
 10
-56.86784667968749
 20
-56.46253119574652
 10
-57.38357747395832
 20
-54.77581244574652
 97
        0
 75
     0
 76
     1
 98
        1
 10
0.0
 20
0.0
  0
ENDBLK
  5
11A
100
AcDbEntity
  8
P357_PLAN
100
AcDbBlockEnd
  0
BLOCK
  5
11D
100
AcDbEntity
  8
P357_PLAN
 62
     7
100
AcDbBlockBegin
  2
AI9-BLK13
 70
     0
 10
0.0
 20
0.0
 30
0.0
  3
AI9-BLK13
  1

  0
MTEXT
  5
12D
100
AcDbEntity
  8
P357_PLAN
 62
     7
100
AcDbMText
 10
-49.203969
 20
-4.03214
 30
0.0
 40
2.099868
 41
0.0
 71
     1
 72
     2
  1
\fArial|b0|i0;71.87"
  7
STD
 11
0.0
 21
1.0
 31
0.0
  0
LINE
  5
12C
100
AcDbEntity
  8
P357_PLAN
 62
     7
100
AcDbLine
 10
-47.104102
 20
22.817556
 30
0.0
 11
-47.104102
 21
22.817556
 31
0.0
  0
LINE
  5
12B
100
AcDbEntity
  8
P357_PLAN
 62
     7
100
AcDbLine
 10
49.63418
 20
-22.817556
 30
0.0
 11
-47.104102
 21
-22.817556
 31
0.0
  0
LINE
  5
12A
100
AcDbEntity
  8
P357_PLAN
 62
     7
100
AcDbLine
 10
-46.398546
 20
22.817556
 30
0.0
 11
-46.398546
 21
-22.817556
 31
0.0
  0
POLYLINE
  5
125
100
AcDbEntity
  8
P357_PLAN
 62
     7
100
AcDb2dPolyline
 66
     1
 10
0.0
 20
0.0
 30
0.0
 70
     1
  0
VERTEX
  5
126
100
AcDbEntity
  8
P357_PLAN
 62
     7
100
AcDbVertex
100
AcDb2dVertex
 10
-46.914277
 20
21.130838
 30
0.0
  0
VERTEX
  5
127
100
AcDbEntity
  8
P357_PLAN
 62
     7
100
AcDbVertex
100
AcDb2dVertex
 10
-46.398546
 20
22.817556
 30
0.0
  0
VERTEX
  5
128
100
AcDbEntity
  8
P357_PLAN
 62
     7
100
AcDbVertex
100
AcDb2dVertex
 10
-45.882815
 20
21.130838
 30
0.0
  0
SEQEND
  5
129
100
AcDbEntity
  8
P357_PLAN
 62
     7
  0
HATCH
  5
124
100
AcDbEntity
  8
P357_PLAN
 62
     7
100
AcDbHatch
 10
0.0
 20
0.0
 30
0.0
210
0.0
220
0.0
230
1.0
  2
SOLID
 70
     1
 71
     0
 91
        1
 92
        3
 72
     0
 73
     1
 93
        3
 10
-46.91427680121527
 20
21.1308376736111
 10
-46.39854600694444
 20
22.8175564236111
 10
-45.88281521267361
 20
21.1308376736111
 97
        0
 75
     0
 76
     1
 98
        1
 10
0.0
 20
0.0
  0
POLYLINE
  5
11F
100
AcDbEntity
  8
P357_PLAN
 62
     7
100
AcDb2dPolyline
 66
     1
 10
0.0
 20
0.0
 30
0.0
 70
     1
  0
VERTEX
  5
120
100
AcDbEntity
  8
P357_PLAN
 62
     7
100
AcDbVertex
100
AcDb2dVertex
 10
-45.882815
 20
-21.130838
 30
0.0
  0
VERTEX
  5
121
100
AcDbEntity
  8
P357_PLAN
 62
     7
100
AcDbVertex
100
AcDb2dVertex
 10
-46.398546
 20
-22.817556
 30
0.0
  0
VERTEX
  5
122
100
AcDbEntity
  8
P357_PLAN
 62
     7
100
AcDbVertex
100
AcDb2dVertex
 10
-46.914277
 20
-21.130838
 30
0.0
  0
SEQEND
  5
123
100
AcDbEntity
  8
P357_PLAN
 62
     7
  0
HATCH
  5
11E
100
AcDbEntity
  8
P357_PLAN
 62
     7
100
AcDbHatch
 10
0.0
 20
0.0
 30
0.0
210
0.0
220
0.0
230
1.0
  2
SOLID
 70
     1
 71
     0
 91
        1
 92
        3
 72
     0
 73
     1
 93
        3
 10
-45.88281521267361
 20
-21.1308376736111
 10
-46.39854600694444
 20
-22.8175564236111
 10
-46.91427680121527
 20
-21.1308376736111
 97
        0
 75
     0
 76
     1
 98
        1
 10
0.0
 20
0.0
  0
ENDBLK
  5
12E
100
AcDbEntity
  8
P357_PLAN
100
AcDbBlockEnd
  0
BLOCK
  5
131
100
AcDbEntity
  8
P357_PLAN
 62
     7
100
AcDbBlockBegin
  2
AI9-BLK14
 70
     0
 10
0.0
 20
0.0
 30
0.0
  3
AI9-BLK14
  1

  0
MTEXT
  5
141
100
AcDbEntity
  8
P357_PLAN
 62
     7
100
AcDbMText
 10
-53.015795
 20
-4.81676
 30
0.0
 40
2.099868
 41
0.0
 71
     1
 72
     2
  1
\fArial|b0|i0;105.97"
  7
STD
 11
0.0
 21
1.0
 31
0.0
  0
LINE
  5
140
100
AcDbEntity
  8
P357_PLAN
 62
     7
100
AcDbLine
 10
53.446006
 20
33.645147
 30
0.0
 11
-50.915927
 21
33.645147
 31
0.0
  0
LINE
  5
13F
100
AcDbEntity
  8
P357_PLAN
 62
     7
100
AcDbLine
 10
-49.957157
 20
-33.644975
 30
0.0
 11
-49.504816
 21
-33.644975
 31
0.0
  0
LINE
  5
13E
100
AcDbEntity
  8
P357_PLAN
 62
     7
100
AcDbLine
 10
-50.210372
 20
33.645147
 30
0.0
 11
-50.210372
 21
-33.644975
 31
0.0
  0
POLYLINE
  5
139
100
AcDbEntity
  8
P357_PLAN
 62
     7
100
AcDb2dPolyline
 66
     1
 10
0.0
 20
0.0
 30
0.0
 70
     1
  0
VERTEX
  5
13A
100
AcDbEntity
  8
P357_PLAN
 62
     7
100
AcDbVertex
100
AcDb2dVertex
 10
-50.726103
 20
31.958256
 30
0.0
  0
VERTEX
  5
13B
100
AcDbEntity
  8
P357_PLAN
 62
     7
100
AcDbVertex
100
AcDb2dVertex
 10
-50.210372
 20
33.645147
 30
0.0
  0
VERTEX
  5
13C
100
AcDbEntity
  8
P357_PLAN
 62
     7
100
AcDbVertex
100
AcDb2dVertex
 10
-49.694641
 20
31.958256
 30
0.0
  0
SEQEND
  5
13D
100
AcDbEntity
  8
P357_PLAN
 62
     7
  0
HATCH
  5
138
100
AcDbEntity
  8
P357_PLAN
 62
     7
100
AcDbHatch
 10
0.0
 20
0.0
 30
0.0
210
0.0
220
0.0
230
1.0
  2
SOLID
 70
     1
 71
     0
 91
        1
 92
        3
 72
     0
 73
     1
 93
        3
 10
-50.72610270182291
 20
31.95825602213541
 10
-50.21037190755208
 20
33.64514702690971
 10
-49.69464111328124
 20
31.95825602213541
 97
        0
 75
     0
 76
     1
 98
        1
 10
0.0
 20
0.0
  0
POLYLINE
  5
133
100
AcDbEntity
  8
P357_PLAN
 62
     7
100
AcDb2dPolyline
 66
     1
 10
0.0
 20
0.0
 30
0.0
 70
     1
  0
VERTEX
  5
134
100
AcDbEntity
  8
P357_PLAN
 62
     7
100
AcDbVertex
100
AcDb2dVertex
 10
-49.694641
 20
-31.958256
 30
0.0
  0
VERTEX
  5
135
100
AcDbEntity
  8
P357_PLAN
 62
     7
100
AcDbVertex
100
AcDb2dVertex
 10
-50.210372
 20
-33.644975
 30
0.0
  0
VERTEX
  5
136
100
AcDbEntity
  8
P357_PLAN
 62
     7
100
AcDbVertex
100
AcDb2dVertex
 10
-50.726103
 20
-31.958256
 30
0.0
  0
SEQEND
  5
137
100
AcDbEntity
  8
P357_PLAN
 62
     7
  0
HATCH
  5
132
100
AcDbEntity
  8
P357_PLAN
 62
     7
100
AcDbHatch
 10
0.0
 20
0.0
 30
0.0
210
0.0
220
0.0
230
1.0
  2
SOLID
 70
     1
 71
     0
 91
        1
 92
        3
 72
     0
 73
     1
 93
        3
 10
-49.69464111328124
 20
-31.95825602213541
 10
-50.21037190755208
 20
-33.64497477213541
 10
-50.72610270182291
 20
-31.95825602213541
 97
        0
 75
     0
 76
     1
 98
        1
 10
0.0
 20
0.0
  0
ENDBLK
  5
142
100
AcDbEntity
  8
P357_PLAN
100
AcDbBlockEnd
  0
BLOCK
  5
145
100
AcDbEntity
  8
P357_PLAN
 62
     7
100
AcDbBlockBegin
  2
AI9-BLK15
 70
     0
 10
0.0
 20
0.0
 30
0.0
  3
AI9-BLK15
  1

  0
MTEXT
  5
155
100
AcDbEntity
  8
P357_PLAN
 62
     7
100
AcDbMText
 10
-4.664138
 20
-26.256451
 30
0.0
 40
2.099868
 41
0.0
 71
     1
 72
     2
  1
\fArial|b0|i0;100.00" Maximum travel area 50" material
  7
STD
 11
0.0
 21
1.0
 31
0.0
  0
LINE
  5
154
100
AcDbEntity
  8
P357_PLAN
 62
     7
100
AcDbLine
 10
5.094349
 20
31.750172
 30
0.0
 11
-2.564271
 21
31.750172
 31
0.0
  0
LINE
  5
153
100
AcDbEntity
  8
P357_PLAN
 62
     7
100
AcDbLine
 10
5.094349
 20
-31.75
 30
0.0
 11
-2.564271
 21
-31.75
 31
0.0
  0
LINE
  5
152
100
AcDbEntity
  8
P357_PLAN
 62
     7
100
AcDbLine
 10
-1.858715
 20
31.750172
 30
0.0
 11
-1.858715
 21
-31.75
 31
0.0
  0
POLYLINE
  5
14D
100
AcDbEntity
  8
P357_PLAN
 62
     7
100
AcDb2dPolyline
 66
     1
 10
0.0
 20
0.0
 30
0.0
 70
     1
  0
VERTEX
  5
14E
100
AcDbEntity
  8
P357_PLAN
 62
     7
100
AcDbVertex
100
AcDb2dVertex
 10
-2.374446
 20
30.063281
 30
0.0
  0
VERTEX
  5
14F
100
AcDbEntity
  8
P357_PLAN
 62
     7
100
AcDbVertex
100
AcDb2dVertex
 10
-1.858715
 20
31.750172
 30
0.0
  0
VERTEX
  5
150
100
AcDbEntity
  8
P357_PLAN
 62
     7
100
AcDbVertex
100
AcDb2dVertex
 10
-1.342984
 20
30.063281
 30
0.0
  0
SEQEND
  5
151
100
AcDbEntity
  8
P357_PLAN
 62
     7
  0
HATCH
  5
14C
100
AcDbEntity
  8
P357_PLAN
 62
     7
100
AcDbHatch
 10
0.0
 20
0.0
 30
0.0
210
0.0
220
0.0
230
1.0
  2
SOLID
 70
     1
 71
     0
 91
        1
 92
        3
 72
     0
 73
     1
 93
        3
 10
-2.37444593641493
 20
30.06328124999999
 10
-1.858715142144097
 20
31.7501722547743
 10
-1.342984347873263
 20
30.06328124999999
 97
        0
 75
     0
 76
     1
 98
        1
 10
0.0
 20
0.0
  0
POLYLINE
  5
147
100
AcDbEntity
  8
P357_PLAN
 62
     7
100
AcDb2dPolyline
 66
     1
 10
0.0
 20
0.0
 30
0.0
 70
     1
  0
VERTEX
  5
148
100
AcDbEntity
  8
P357_PLAN
 62
     7
100
AcDbVertex
100
AcDb2dVertex
 10
-1.342984
 20
-30.063281
 30
0.0
  0
VERTEX
  5
149
100
AcDbEntity
  8
P357_PLAN
 62
     7
100
AcDbVertex
100
AcDb2dVertex
 10
-1.858715
 20
-31.75
 30
0.0
  0
VERTEX
  5
14A
100
AcDbEntity
  8
P357_PLAN
 62
     7
100
AcDbVertex
100
AcDb2dVertex
 10
-2.374446
 20
-30.063281
 30
0.0
  0
SEQEND
  5
14B
100
AcDbEntity
  8
P357_PLAN
 62
     7
  0
HATCH
  5
146
100
AcDbEntity
  8
P357_PLAN
 62
     7
100
AcDbHatch
 10
0.0
 20
0.0
 30
0.0
210
0.0
220
0.0
230
1.0
  2
SOLID
 70
     1
 71
     0
 91
        1
 92
        3
 72
     0
 73
     1
 93
        3
 10
-1.342984347873263
 20
-30.06328124999999
 10
-1.858715142144097
 20
-31.74999999999999
 10
-2.37444593641493
 20
-30.06328124999999
 97
        0
 75
     0
 76
     1
 98
        1
 10
0.0
 20
0.0
  0
ENDBLK
  5
156
100
AcDbEntity
  8
P357_PLAN
100
AcDbBlockEnd
  0
BLOCK
  5
159
100
AcDbEntity
  8
P357_PLAN
 62
     7
100
AcDbBlockBegin
  2
AI9-BLK16
 70
     0
 10
0.0
 20
0.0
 30
0.0
  3
AI9-BLK16
  1

  0
MTEXT
  5
168
100
AcDbEntity
  8
P357_PLAN
 62
     7
100
AcDbMText
 10
-2.036736
 20
-13.287733
 30
0.0
 40
2.099868
 41
0.0
 71
     1
 72
     2
  1
\fArial|b0|i0;50.00" working range
  7
STD
 11
0.0
 21
1.0
 31
0.0
  0
LINE
  5
167
100
AcDbEntity
  8
P357_PLAN
 62
     7
100
AcDbLine
 10
2.466947
 20
15.875172
 30
0.0
 11
0.063131
 21
15.875172
 31
0.0
  0
LINE
  5
166
100
AcDbEntity
  8
P357_PLAN
 62
     7
100
AcDbLine
 10
0.768687
 20
15.875172
 30
0.0
 11
0.768687
 21
-15.875
 31
0.0
  0
POLYLINE
  5
161
100
AcDbEntity
  8
P357_PLAN
 62
     7
100
AcDb2dPolyline
 66
     1
 10
0.0
 20
0.0
 30
0.0
 70
     1
  0
VERTEX
  5
162
100
AcDbEntity
  8
P357_PLAN
 62
     7
100
AcDbVertex
100
AcDb2dVertex
 10
0.252956
 20
14.188281
 30
0.0
  0
VERTEX
  5
163
100
AcDbEntity
  8
P357_PLAN
 62
     7
100
AcDbVertex
100
AcDb2dVertex
 10
0.768687
 20
15.875172
 30
0.0
  0
VERTEX
  5
164
100
AcDbEntity
  8
P357_PLAN
 62
     7
100
AcDbVertex
100
AcDb2dVertex
 10
1.284418
 20
14.188281
 30
0.0
  0
SEQEND
  5
165
100
AcDbEntity
  8
P357_PLAN
 62
     7
  0
HATCH
  5
160
100
AcDbEntity
  8
P357_PLAN
 62
     7
100
AcDbHatch
 10
0.0
 20
0.0
 30
0.0
210
0.0
220
0.0
230
1.0
  2
SOLID
 70
     1
 71
     0
 91
        1
 92
        3
 72
     0
 73
     1
 93
        3
 10
0.2529561360677083
 20
14.18828125
 10
0.7686869303385416
 20
15.8751722547743
 10
1.284417724609374
 20
14.18828125
 97
        0
 75
     0
 76
     1
 98
        1
 10
0.0
 20
0.0
  0
POLYLINE
  5
15B
100
AcDbEntity
  8
P357_PLAN
 62
     7
100
AcDb2dPolyline
 66
     1
 10
0.0
 20
0.0
 30
0.0
 70
     1
  0
VERTEX
  5
15C
100
AcDbEntity
  8
P357_PLAN
 62
     7
100
AcDbVertex
100
AcDb2dVertex
 10
1.284418
 20
-14.188281
 30
0.0
  0
VERTEX
  5
15D
100
AcDbEntity
  8
P357_PLAN
 62
     7
100
AcDbVertex
100
AcDb2dVertex
 10
0.768687
 20
-15.875
 30
0.0
  0
VERTEX
  5
15E
100
AcDbEntity
  8
P357_PLAN
 62
     7
100
AcDbVertex
100
AcDb2dVertex
 10
0.252956
 20
-14.188281
 30
0.0
  0
SEQEND
  5
15F
100
AcDbEntity
  8
P357_PLAN
 62
     7
  0
HATCH
  5
15A
100
AcDbEntity
  8
P357_PLAN
 62
     7
100
AcDbHatch
 10
0.0
 20
0.0
 30
0.0
210
0.0
220
0.0
230
1.0
  2
SOLID
 70
     1
 71
     0
 91
        1
 92
        3
 72
     0
 73
     1
 93
        3
 10
1.284417724609374
 20
-14.18828125
 10
0.7686869303385416
 20
-15.87499999999999
 10
0.2529561360677083
 20
-14.18828125
 97
        0
 75
     0
 76
     1
 98
        1
 10
0.0
 20
0.0
  0
ENDBLK
  5
169
100
AcDbEntity
  8
P357_PLAN
100
AcDbBlockEnd
  0
BLOCK
  5
172
100
AcDbEntity
  8
P357_PLAN
 62
     7
100
AcDbBlockBegin
  2
AI9-BLK17
 70
     0
 10
0.0
 20
0.0
 30
0.0
  3
AI9-BLK17
  1

  0
SPLINE
  5
1CB
100
AcDbEntity
  8
P357_PLAN
 62
     7
100
AcDbSpline
210
0.0
220
0.0
230
1.0
 70
     8
 71
     3
 72
     8
 73
     4
 74
     0
 42
0.0000001
 43
0.0000001
 40
0.0
 40
0.0
 40
0.0
 40
0.0
 40
1.0
 40
1.0
 40
1.0
 40
1.0
 10
-1.874476453993055
 20
-10.17353922526041
 30
0.0
 10
-0.8299235026041666
 20
-10.45810411241319
 30
0.0
 10
0.2325439453125
 20
-10.67101101345486
 30
0.0
 10
1.305346679687499
 20
-10.81019287109374
 30
0.0
  0
SPLINE
  5
1CA
100
AcDbEntity
  8
P357_PLAN
 62
     7
100
AcDbSpline
210
0.0
220
0.0
230
1.0
 70
     8
 71
     3
 72
    11
 73
     7
 74
     0
 42
0.0000001
 43
0.0000001
 40
0.0
 40
0.0
 40
0.0
 40
0.0
 40
1.0
 40
1.0
 40
1.0
 40
2.0
 40
2.0
 40
2.0
 40
2.0
 10
1.305346679687499
 20
-10.81019287109374
 30
0.0
 10
1.992987738715277
 20
-11.04308132595485
 30
0.0
 10
2.739195421006944
 20
-10.67445610894097
 30
0.0
 10
2.972083875868055
 20
-9.986815049913193
 30
0.0
 10
3.141582573784722
 20
-9.487965223524303
 30
0.0
 10
2.996199544270833
 20
-8.936060926649304
 30
0.0
 10
2.602769639756944
 20
-8.584833441840277
 30
0.0
  0
SPLINE
  5
1C9
100
AcDbEntity
  8
P357_PLAN
 62
     7
100
AcDbSpline
210
0.0
220
0.0
230
-1.0
 70
     8
 71
     3
 72
     8
 73
     4
 74
     0
 42
0.0000001
 43
0.0000001
 40
0.0
 40
0.0
 40
0.0
 40
0.0
 40
1.0
 40
1.0
 40
1.0
 40
1.0
 10
4.030417209201388
 20
4.061767578125
 30
0.0
 10
3.707267252604166
 20
4.989876302083333
 30
0.0
 10
2.912139214409721
 20
5.673038736979165
 30
0.0
 10
1.946134440104166
 20
5.852872721354166
 30
0.0
  0
SPLINE
  5
1C8
100
AcDbEntity
  8
P357_PLAN
 62
     7
100
AcDbSpline
210
0.0
220
0.0
230
1.0
 70
     8
 71
     3
 72
     8
 73
     4
 74
     0
 42
0.0000001
 43
0.0000001
 40
0.0
 40
0.0
 40
0.0
 40
0.0
 40
1.0
 40
1.0
 40
1.0
 40
1.0
 10
2.624818250868055
 20
-8.500773111979166
 30
0.0
 10
4.66982693142361
 20
-6.251814778645832
 30
0.0
 10
5.744007703993054
 20
-3.285243055555555
 30
0.0
 10
5.613783094618055
 20
-0.248046875
 30
0.0
  0
SPLINE
  5
1C7
100
AcDbEntity
  8
P357_PLAN
 62
     7
100
AcDbSpline
210
0.0
220
0.0
230
1.0
 70
     8
 71
     3
 72
    14
 73
    10
 74
     0
 42
0.0000001
 43
0.0000001
 40
0.0
 40
0.0
 40
0.0
 40
0.0
 40
1.0
 40
1.0
 40
1.0
 40
2.0
 40
2.0
 40
2.0
 40
3.0
 40
3.0
 40
3.0
 40
3.0
 10
1.162030707465277
 20
-4.62641872829861
 30
0.0
 10
2.015036349826388
 20
-5.359535047743055
 30
0.0
 10
3.301435004340277
 20
-5.261694335937499
 30
0.0
 10
4.033862304687499
 20
-4.407999674479166
 30
0.0
 10
4.766289605034721
 20
-3.554649522569444
 30
0.0
 10
4.668448893229165
 20
-2.268939887152777
 30
0.0
 10
3.815443250868055
 20
-1.535823567708333
 30
0.0
 10
3.45439724392361
 20
-1.226453993055555
 30
0.0
 10
2.996888563368055
 20
-1.052821180555555
 30
0.0
 10
2.521465386284722
 20
-1.044552951388888
 30
0.0
  0
SPLINE
  5
1C6
100
AcDbEntity
  8
P357_PLAN
 62
     7
100
AcDbSpline
210
0.0
220
0.0
230
-1.0
 70
     8
 71
     3
 72
    14
 73
    10
 74
     0
 42
0.0000001
 43
0.0000001
 40
0.0
 40
0.0
 40
0.0
 40
0.0
 40
1.0
 40
1.0
 40
1.0
 40
2.0
 40
2.0
 40
2.0
 40
3.0
 40
3.0
 40
3.0
 40
3.0
 10
-4.218519422743055
 20
9.160164388020833
 30
0.0
 10
-4.354945203993055
 20
9.176011827256942
 30
0.0
 10
-4.479657660590277
 20
9.078171115451388
 30
0.0
 10
-4.495505099826388
 20
8.941745334201387
 30
0.0
 10
-4.512041558159721
 20
8.804630533854165
 30
0.0
 10
-4.414200846354166
 20
8.680607096354165
 30
0.0
 10
-4.277086046006943
 20
8.664759657118054
 30
0.0
 10
-4.241946072048611
 20
8.66062554253472
 30
0.0
 10
-4.206117078993055
 20
8.66338161892361
 30
0.0
 10
-4.172355143229165
 20
8.674405924479165
 30
0.0
  0
LINE
  5
1C5
100
AcDbEntity
  8
P357_PLAN
 62
     7
100
AcDbLine
 10
-3.515031
 20
8.957593
 30
0.0
 11
-4.28122
 21
9.574954
 31
0.0
  0
SPLINE
  5
1C4
100
AcDbEntity
  8
P357_PLAN
 62
     7
100
AcDbSpline
210
0.0
220
0.0
230
1.0
 70
     8
 71
     3
 72
     8
 73
     4
 74
     0
 42
0.0000001
 43
0.0000001
 40
0.0
 40
0.0
 40
0.0
 40
0.0
 40
1.0
 40
1.0
 40
1.0
 40
1.0
 10
-2.239656575520833
 20
9.933243815104166
 30
0.0
 10
-1.498272026909722
 20
9.065079752604166
 30
0.0
 10
-0.6431993272569444
 20
8.302335611979165
 30
0.0
 10
0.3035129123263889
 20
7.66499294704861
 30
0.0
  0
LINE
  5
1C3
100
AcDbEntity
  8
P357_PLAN
 62
     7
100
AcDbLine
 10
-4.778003
 20
10.498239
 30
0.0
 11
-4.846216
 21
10.298424
 31
0.0
  0
LINE
  5
1C2
100
AcDbEntity
  8
P357_PLAN
 62
     7
100
AcDbLine
 10
-4.63951
 20
10.586434
 30
0.0
 11
-4.778003
 21
10.498239
 31
0.0
  0
LINE
  5
1C1
100
AcDbEntity
  8
P357_PLAN
 62
     7
100
AcDbLine
 10
-4.493438
 20
10.558873
 30
0.0
 11
-4.63951
 21
10.586434
 31
0.0
  0
LINE
  5
1C0
100
AcDbEntity
  8
P357_PLAN
 62
     7
100
AcDbLine
 10
-4.357012
 20
10.414179
 30
0.0
 11
-4.493438
 21
10.558873
 31
0.0
  0
LINE
  5
1BF
100
AcDbEntity
  8
P357_PLAN
 62
     7
100
AcDbLine
 10
-4.34461
 20
10.565763
 30
0.0
 11
-4.355634
 21
10.401777
 31
0.0
  0
LINE
  5
1BE
100
AcDbEntity
  8
P357_PLAN
 62
     7
100
AcDbLine
 10
-3.770657
 20
9.167055
 30
0.0
 11
-4.312915
 21
9.144317
 31
0.0
  0
LINE
  5
1BD
100
AcDbEntity
  8
P357_PLAN
 62
     7
100
AcDbLine
 10
-4.507218
 20
9.773391
 30
0.0
 11
-4.100697
 21
9.402699
 31
0.0
  0
LINE
  5
1BC
100
AcDbEntity
  8
P357_PLAN
 62
     7
100
AcDbLine
 10
-4.847594
 20
10.333564
 30
0.0
 11
-4.507218
 21
9.773391
 31
0.0
  0
LINE
  5
1BB
100
AcDbEntity
  8
P357_PLAN
 62
     7
100
AcDbLine
 10
-4.355634
 20
10.401777
 30
0.0
 11
-3.911217
 21
9.896726
 31
0.0
  0
LINE
  5
1BA
100
AcDbEntity
  8
P357_PLAN
 62
     7
100
AcDbLine
 10
-3.998722
 20
10.733884
 30
0.0
 11
-4.189581
 21
10.739396
 31
0.0
  0
LINE
  5
1B9
100
AcDbEntity
  8
P357_PLAN
 62
     7
100
AcDbLine
 10
-3.026516
 20
10.848261
 30
0.0
 11
-2.823945
 21
10.684964
 31
0.0
  0
LINE
  5
1B8
100
AcDbEntity
  8
P357_PLAN
 62
     7
100
AcDbLine
 10
-3.189814
 20
10.804853
 30
0.0
 11
-3.026516
 21
10.848261
 31
0.0
  0
SPLINE
  5
1B7
100
AcDbEntity
  8
P357_PLAN
 62
     7
100
AcDbSpline
210
0.0
220
0.0
230
1.0
 70
     8
 71
     3
 72
     8
 73
     4
 74
     0
 42
0.0000001
 43
0.0000001
 40
0.0
 40
0.0
 40
0.0
 40
0.0
 40
1.0
 40
1.0
 40
1.0
 40
1.0
 10
-2.029505750868055
 20
9.714135742187499
 30
0.0
 10
-2.241723632812499
 20
10.07793782552083
 30
0.0
 10
-2.509752061631944
 20
10.40522189670138
 30
0.0
 10
-2.823944769965277
 20
10.68496365017361
 30
0.0
  0
LINE
  5
1B6
100
AcDbEntity
  8
P357_PLAN
 62
     7
100
AcDbLine
 10
-3.285588
 20
10.649135
 30
0.0
 11
-2.993443
 21
10.246748
 31
0.0
  0
LINE
  5
1B5
100
AcDbEntity
  8
P357_PLAN
 62
     7
100
AcDbLine
 10
-3.864364
 20
10.584367
 30
0.0
 11
-3.498494
 21
10.08345
 31
0.0
  0
LINE
  5
1B4
100
AcDbEntity
  8
P357_PLAN
 62
     7
100
AcDbLine
 10
-3.805797
 20
10.789006
 30
0.0
 11
-3.864364
 21
10.584367
 31
0.0
  0
LINE
  5
1B3
100
AcDbEntity
  8
P357_PLAN
 62
     7
100
AcDbLine
 10
-3.659036
 20
10.876511
 30
0.0
 11
-3.805797
 21
10.789006
 31
0.0
  0
LINE
  5
1B2
100
AcDbEntity
  8
P357_PLAN
 62
     7
100
AcDbLine
 10
-3.451641
 20
10.771091
 30
0.0
 11
-3.659036
 21
10.876511
 31
0.0
  0
LINE
  5
1B1
100
AcDbEntity
  8
P357_PLAN
 62
     7
100
AcDbLine
 10
-3.285588
 20
10.649135
 30
0.0
 11
-3.451641
 21
10.771091
 31
0.0
  0
LINE
  5
1B0
100
AcDbEntity
  8
P357_PLAN
 62
     7
100
AcDbLine
 10
-3.189814
 20
10.804853
 30
0.0
 11
-3.285588
 21
10.649135
 31
0.0
  0
LINE
  5
1AF
100
AcDbEntity
  8
P357_PLAN
 62
     7
100
AcDbLine
 10
-1.810398
 20
9.370315
 30
0.0
 11
-2.008146
 21
9.715514
 31
0.0
  0
LINE
  5
1AE
100
AcDbEntity
  8
P357_PLAN
 62
     7
100
AcDbLine
 10
-3.860229
 20
10.576788
 30
0.0
 11
-3.998722
 21
10.733884
 31
0.0
  0
LINE
  5
1AD
100
AcDbEntity
  8
P357_PLAN
 62
     7
100
AcDbLine
 10
-4.189581
 20
10.739396
 30
0.0
 11
-4.34461
 21
10.565763
 31
0.0
  0
SPLINE
  5
1AC
100
AcDbEntity
  8
P357_PLAN
 62
     7
100
AcDbSpline
210
0.0
220
0.0
230
-1.0
 70
     8
 71
     3
 72
     8
 73
     4
 74
     0
 42
0.0000001
 43
0.0000001
 40
0.0
 40
0.0
 40
0.0
 40
0.0
 40
1.0
 40
1.0
 40
1.0
 40
1.0
 10
2.225876193576388
 20
1.542713758680555
 30
0.0
 10
1.232310655381944
 20
1.049376085069444
 30
0.0
 10
0.6838514539930555
 20
-0.0420301649305556
 30
0.0
 10
0.8815999348958332
 20
-1.134125434027777
 30
0.0
  0
SPLINE
  5
1AB
100
AcDbEntity
  8
P357_PLAN
 62
     7
100
AcDbSpline
210
0.0
220
0.0
230
-1.0
 70
     8
 71
     3
 72
    11
 73
     7
 74
     0
 42
0.0000001
 43
0.0000001
 40
0.0
 40
0.0
 40
0.0
 40
0.0
 40
1.0
 40
1.0
 40
1.0
 40
2.0
 40
2.0
 40
2.0
 40
2.0
 10
1.425236002604166
 20
-1.034906684027777
 30
0.0
 10
0.5157307942708333
 20
-0.9563585069444442
 30
0.0
 10
-0.2855984157986111
 20
-1.630219184027777
 30
0.0
 10
-0.3641465928819444
 20
-2.53972439236111
 30
0.0
 10
-0.4220241970486111
 20
-3.206005859374999
 30
0.0
 10
-0.0726915147569445
 20
-3.841281467013888
 30
0.0
 10
0.5212429470486111
 20
-4.149617513020833
 30
0.0
  0
LINE
  5
1AA
100
AcDbEntity
  8
P357_PLAN
 62
     7
100
AcDbLine
 10
-2.924542
 20
8.686808
 30
0.0
 11
-2.601392
 21
8.686119
 31
0.0
  0
LINE
  5
1A9
100
AcDbEntity
  8
P357_PLAN
 62
     7
100
AcDbLine
 10
-3.395142
 20
8.605504
 30
0.0
 11
-2.924542
 21
8.686808
 31
0.0
  0
LINE
  5
1A8
100
AcDbEntity
  8
P357_PLAN
 62
     7
100
AcDbLine
 10
-4.370104
 20
8.695076
 30
0.0
 11
-3.395142
 21
8.605504
 31
0.0
  0
LINE
  5
1A7
100
AcDbEntity
  8
P357_PLAN
 62
     7
100
AcDbLine
 10
-2.442228
 20
8.604126
 30
0.0
 11
-2.580721
 21
8.649601
 31
0.0
  0
SPLINE
  5
1A6
100
AcDbEntity
  8
P357_PLAN
 62
     7
100
AcDbSpline
210
0.0
220
0.0
230
-1.0
 70
     8
 71
     3
 72
     8
 73
     4
 74
     0
 42
0.0000001
 43
0.0000001
 40
0.0
 40
0.0
 40
0.0
 40
0.0
 40
1.0
 40
1.0
 40
1.0
 40
1.0
 10
1.571308051215277
 20
4.109309895833333
 30
0.0
 10
1.855872938368055
 20
2.66684841579861
 30
0.0
 10
2.272040473090277
 20
1.253325737847222
 30
0.0
 10
2.813609483506944
 20
-0.1133436414930556
 30
0.0
  0
SPLINE
  5
1A5
100
AcDbEntity
  8
P357_PLAN
 62
     7
100
AcDbSpline
210
0.0
220
0.0
230
-1.0
 70
     8
 71
     3
 72
     8
 73
     4
 74
     0
 42
0.0000001
 43
0.0000001
 40
0.0
 40
0.0
 40
0.0
 40
0.0
 40
1.0
 40
1.0
 40
1.0
 40
1.0
 10
2.308558485243055
 20
5.849427625868054
 30
0.0
 10
1.91650661892361
 20
6.703122287326388
 30
0.0
 10
1.191658528645833
 20
7.359068467881943
 30
0.0
 10
0.3035129123263889
 20
7.66499294704861
 30
0.0
  0
SPLINE
  5
1A4
100
AcDbEntity
  8
P357_PLAN
 62
     7
100
AcDbSpline
210
0.0
220
0.0
230
-1.0
 70
     8
 71
     3
 72
     8
 73
     4
 74
     0
 42
0.0000001
 43
0.0000001
 40
0.0
 40
0.0
 40
0.0
 40
0.0
 40
1.0
 40
1.0
 40
1.0
 40
1.0
 10
-2.495282660590277
 20
8.652357313368055
 30
0.0
 10
-1.262627495659722
 20
7.03247341579861
 30
0.0
 10
0.0974962022569445
 20
5.51318630642361
 30
0.0
 10
1.571308051215277
 20
4.109309895833333
 30
0.0
  0
LINE
  5
1A3
100
AcDbEntity
  8
P357_PLAN
 62
     7
100
AcDbLine
 10
-5.624118
 20
-8.611016
 30
0.0
 11
-5.535235
 21
-8.419469
 31
0.0
  0
LINE
  5
1A2
100
AcDbEntity
  8
P357_PLAN
 62
     7
100
AcDbLine
 10
-5.584844
 20
-8.770007
 30
0.0
 11
-5.624118
 21
-8.611016
 31
0.0
  0
LINE
  5
1A1
100
AcDbEntity
  8
P357_PLAN
 62
     7
100
AcDbLine
 10
-5.460821
 20
-8.851312
 30
0.0
 11
-5.584844
 21
-8.770007
 31
0.0
  0
LINE
  5
1A0
100
AcDbEntity
  8
P357_PLAN
 62
     7
100
AcDbLine
 10
-5.56004
 20
-8.444274
 30
0.0
 11
-4.926831
 21
-8.275464
 31
0.0
  0
LINE
  5
19F
100
AcDbEntity
  8
P357_PLAN
 62
     7
100
AcDbLine
 10
-5.261694
 20
-8.841665
 30
0.0
 11
-5.460821
 21
-8.851312
 31
0.0
  0
LINE
  5
19E
100
AcDbEntity
  8
P357_PLAN
 62
     7
100
AcDbLine
 10
-5.357468
 20
-8.959488
 30
0.0
 11
-5.252737
 21
-8.833397
 31
0.0
  0
LINE
  5
19D
100
AcDbEntity
  8
P357_PLAN
 62
     7
100
AcDbLine
 10
-4.601614
 20
-10.075699
 30
0.0
 11
-4.342543
 21
-10.097747
 31
0.0
  0
LINE
  5
19C
100
AcDbEntity
  8
P357_PLAN
 62
     7
100
AcDbLine
 10
-4.689119
 20
-9.931005
 30
0.0
 11
-4.601614
 21
-10.075699
 31
0.0
  0
SPLINE
  5
19B
100
AcDbEntity
  8
P357_PLAN
 62
     7
100
AcDbSpline
210
0.0
220
0.0
230
1.0
 70
     8
 71
     3
 72
     8
 73
     4
 74
     0
 42
0.0000001
 43
0.0000001
 40
0.0
 40
0.0
 40
0.0
 40
0.0
 40
1.0
 40
1.0
 40
1.0
 40
1.0
 10
-4.342542860243055
 20
-10.09774712456597
 30
0.0
 10
-3.922241210937499
 20
-10.11290554470485
 30
0.0
 10
-3.501939561631944
 20
-10.06191813151041
 30
0.0
 10
-3.097485351562499
 20
-9.946162923177082
 30
0.0
  0
LINE
  5
19A
100
AcDbEntity
  8
P357_PLAN
 62
     7
100
AcDbLine
 10
-4.650534
 20
-9.752549
 30
0.0
 11
-4.16202
 21
-9.663665
 31
0.0
  0
LINE
  5
199
100
AcDbEntity
  8
P357_PLAN
 62
     7
100
AcDbLine
 10
-5.224487
 20
-9.319845
 30
0.0
 11
-5.366425
 21
-9.191687
 31
0.0
  0
LINE
  5
198
100
AcDbEntity
  8
P357_PLAN
 62
     7
100
AcDbLine
 10
-5.015715
 20
-9.30193
 30
0.0
 11
-5.224487
 21
-9.319845
 31
0.0
  0
LINE
  5
197
100
AcDbEntity
  8
P357_PLAN
 62
     7
100
AcDbLine
 10
-5.023983
 20
-9.305375
 30
0.0
 11
-4.413512
 21
-9.19651
 31
0.0
  0
LINE
  5
196
100
AcDbEntity
  8
P357_PLAN
 62
     7
100
AcDbLine
 10
-5.123201
 20
-9.493477
 30
0.0
 11
-5.023983
 21
-9.305375
 31
0.0
  0
LINE
  5
195
100
AcDbEntity
  8
P357_PLAN
 62
     7
100
AcDbLine
 10
-5.077726
 20
-9.658153
 30
0.0
 11
-5.123201
 21
-9.493477
 31
0.0
  0
LINE
  5
194
100
AcDbEntity
  8
P357_PLAN
 62
     7
100
AcDbLine
 10
-4.855173
 20
-9.725677
 30
0.0
 11
-5.077726
 21
-9.658153
 31
0.0
  0
LINE
  5
193
100
AcDbEntity
  8
P357_PLAN
 62
     7
100
AcDbLine
 10
-4.650534
 20
-9.752549
 30
0.0
 11
-4.855173
 21
-9.725677
 31
0.0
  0
LINE
  5
192
100
AcDbEntity
  8
P357_PLAN
 62
     7
100
AcDbLine
 10
-4.689119
 20
-9.931005
 30
0.0
 11
-4.650534
 21
-9.752549
 31
0.0
  0
LINE
  5
191
100
AcDbEntity
  8
P357_PLAN
 62
     7
100
AcDbLine
 10
-5.252737
 20
-8.833397
 30
0.0
 11
-4.582322
 21
-8.776208
 31
0.0
  0
LINE
  5
190
100
AcDbEntity
  8
P357_PLAN
 62
     7
100
AcDbLine
 10
-5.366425
 20
-9.191687
 30
0.0
 11
-5.357468
 21
-8.959488
 31
0.0
  0
LINE
  5
18F
100
AcDbEntity
  8
P357_PLAN
 62
     7
100
AcDbLine
 10
-3.975985
 20
-8.346433
 30
0.0
 11
-4.3515
 21
-7.95507
 31
0.0
  0
LINE
  5
18E
100
AcDbEntity
  8
P357_PLAN
 62
     7
100
AcDbLine
 10
-3.032718
 20
-8.585522
 30
0.0
 11
-2.79914
 21
-8.807903
 31
0.0
  0
LINE
  5
18D
100
AcDbEntity
  8
P357_PLAN
 62
     7
100
AcDbLine
 10
-3.315904
 20
-8.20105
 30
0.0
 11
-3.032718
 21
-8.585522
 31
0.0
  0
LINE
  5
18C
100
AcDbEntity
  8
P357_PLAN
 62
     7
100
AcDbLine
 10
-2.626885
 20
-8.858891
 30
0.0
 11
-2.758488
 21
-8.79619
 31
0.0
  0
LINE
  5
18B
100
AcDbEntity
  8
P357_PLAN
 62
     7
100
AcDbLine
 10
-2.626885
 20
-8.858891
 30
0.0
 11
-1.948891
 21
-8.763806
 31
0.0
  0
SPLINE
  5
18A
100
AcDbEntity
  8
P357_PLAN
 62
     7
100
AcDbSpline
210
0.0
220
0.0
230
1.0
 70
     8
 71
     3
 72
    14
 73
    10
 74
     0
 42
0.0000001
 43
0.0000001
 40
0.0
 40
0.0
 40
0.0
 40
0.0
 40
1.0
 40
1.0
 40
1.0
 40
2.0
 40
2.0
 40
2.0
 40
3.0
 40
3.0
 40
3.0
 40
3.0
 10
-3.924997287326388
 20
-7.713224283854166
 30
0.0
 10
-3.991143120659721
 20
-7.591956922743055
 30
0.0
 10
-4.14272732204861
 20
-7.547859700520832
 30
0.0
 10
-4.263994683159721
 20
-7.613316514756943
 30
0.0
 10
-4.38457302517361
 20
-7.679462348090277
 30
0.0
 10
-4.429359266493055
 20
-7.831046549479165
 30
0.0
 10
-4.363213433159721
 20
-7.952313910590277
 30
0.0
 10
-4.345987955729166
 20
-7.983319769965277
 30
0.0
 10
-4.32256130642361
 20
-8.010191514756943
 30
0.0
 10
-4.2943115234375
 20
-8.031551106770832
 30
0.0
  0
LINE
  5
189
100
AcDbEntity
  8
P357_PLAN
 62
     7
100
AcDbLine
 10
-4.082094
 20
-7.591268
 30
0.0
 11
-3.315904
 21
-8.20105
 31
0.0
  0
LINE
  5
188
100
AcDbEntity
  8
P357_PLAN
 62
     7
100
AcDbLine
 10
1.16961
 20
-4.662248
 30
0.0
 11
0.2918
 21
-4.005957
 31
0.0
  0
LINE
  5
187
100
AcDbEntity
  8
P357_PLAN
 62
     7
100
AcDbLine
 10
1.453486
 20
-4.986087
 30
0.0
 11
1.519632
 21
-5.108043
 31
0.0
  0
LINE
  5
186
100
AcDbEntity
  8
P357_PLAN
 62
     7
100
AcDbLine
 10
-3.645945
 20
-8.372616
 30
0.0
 11
-4.627108
 21
-8.287866
 31
0.0
  0
LINE
  5
185
100
AcDbEntity
  8
P357_PLAN
 62
     7
100
AcDbLine
 10
-4.926831
 20
-8.275464
 30
0.0
 11
-4.376994
 21
-8.288555
 31
0.0
  0
SPLINE
  5
184
100
AcDbEntity
  8
P357_PLAN
 62
     7
100
AcDbSpline
210
0.0
220
0.0
230
1.0
 70
     8
 71
     3
 72
     8
 73
     4
 74
     0
 42
0.0000001
 43
0.0000001
 40
0.0
 40
0.0
 40
0.0
 40
0.0
 40
1.0
 40
1.0
 40
1.0
 40
1.0
 10
2.243101671006944
 20
-1.059711371527777
 30
0.0
 10
2.240345594618055
 20
-1.059711371527777
 30
0.0
 10
2.236900499131944
 20
-1.060400390624999
 30
0.0
 10
2.233455403645832
 20
-1.060400390624999
 30
0.0
  0
LINE
  5
183
100
AcDbEntity
  8
P357_PLAN
 62
     7
100
AcDbLine
 10
2.632397
 20
-1.055577
 30
0.0
 11
2.471167
 21
-0.923975
 31
0.0
  0
LINE
  5
182
100
AcDbEntity
  8
P357_PLAN
 62
     7
100
AcDbLine
 10
2.471167
 20
-0.923975
 30
0.0
 11
2.587611
 21
-0.848872
 31
0.0
  0
LINE
  5
181
100
AcDbEntity
  8
P357_PLAN
 62
     7
100
AcDbLine
 10
2.491149
 20
-1.021815
 30
0.0
 11
1.273652
 21
-1.029395
 31
0.0
  0
LINE
  5
180
100
AcDbEntity
  8
P357_PLAN
 62
     7
100
AcDbLine
 10
3.510897
 20
-1.041108
 30
0.0
 11
3.585311
 21
-1.225076
 31
0.0
  0
LINE
  5
17F
100
AcDbEntity
  8
P357_PLAN
 62
     7
100
AcDbLine
 10
3.585311
 20
-1.225076
 30
0.0
 11
3.437861
 21
-1.231966
 31
0.0
  0
LINE
  5
17E
100
AcDbEntity
  8
P357_PLAN
 62
     7
100
AcDbLine
 10
2.587611
 20
-0.848872
 30
0.0
 11
3.510897
 21
-1.041108
 31
0.0
  0
LINE
  5
17D
100
AcDbEntity
  8
P357_PLAN
 62
     7
100
AcDbLine
 10
-1.874476
 20
-10.173539
 30
0.0
 11
-2.701299
 21
-9.849011
 31
0.0
  0
LINE
  5
17C
100
AcDbEntity
  8
P357_PLAN
 62
     7
100
AcDbLine
 10
-1.086928
 20
-8.805147
 30
0.0
 11
0.111966
 21
-8.664071
 31
0.0
  0
LINE
  5
17B
100
AcDbEntity
  8
P357_PLAN
 62
     7
100
AcDbLine
 10
2.394686
 20
-5.392608
 30
0.0
 11
2.556605
 21
-5.329218
 31
0.0
  0
LINE
  5
17A
100
AcDbEntity
  8
P357_PLAN
 62
     7
100
AcDbLine
 10
2.556605
 20
-5.329218
 30
0.0
 11
2.426381
 21
-5.175567
 31
0.0
  0
LINE
  5
179
100
AcDbEntity
  8
P357_PLAN
 62
     7
100
AcDbLine
 10
-2.701299
 20
-9.849011
 30
0.0
 11
-3.082327
 21
-9.961321
 31
0.0
  0
SPLINE
  5
178
100
AcDbEntity
  8
P357_PLAN
 62
     7
100
AcDbSpline
210
0.0
220
0.0
230
-1.0
 70
     8
 71
     3
 72
    11
 73
     7
 74
     0
 42
0.0000001
 43
0.0000001
 40
0.0
 40
0.0
 40
0.0
 40
0.0
 40
1.0
 40
1.0
 40
1.0
 40
2.0
 40
2.0
 40
2.0
 40
2.0
 10
0.1781114366319444
 20
-6.706567382812499
 30
0.0
 10
-0.4227132161458333
 20
-7.453464084201388
 30
0.0
 10
-0.3042019314236111
 20
-8.54555935329861
 30
0.0
 10
0.4426947699652778
 20
-9.14552273220486
 30
0.0
 10
0.4771457248263889
 20
-9.173083496093749
 30
0.0
 10
0.5129747178819444
 20
-9.199955240885415
 30
0.0
 10
0.5494927300347223
 20
-9.224759928385415
 30
0.0
  0
SPLINE
  5
177
100
AcDbEntity
  8
P357_PLAN
 62
     7
100
AcDbSpline
210
0.0
220
0.0
230
-1.0
 70
     8
 71
     3
 72
     8
 73
     4
 74
     0
 42
0.0000001
 43
0.0000001
 40
0.0
 40
0.0
 40
0.0
 40
0.0
 40
1.0
 40
1.0
 40
1.0
 40
1.0
 10
-0.0995632595486111
 20
-3.539491102430555
 30
0.0
 10
-0.4964382595486111
 20
-4.581632486979166
 30
0.0
 10
-0.3944634331597222
 20
-5.74883083767361
 30
0.0
 10
0.1781114366319444
 20
-6.706567382812499
 30
0.0
  0
LINE
  5
176
100
AcDbEntity
  8
P357_PLAN
 62
     7
100
AcDbLine
 10
1.680862
 20
-4.954392
 30
0.0
 11
1.453486
 21
-4.986087
 31
0.0
  0
LINE
  5
175
100
AcDbEntity
  8
P357_PLAN
 62
     7
100
AcDbLine
 10
1.519632
 20
-5.108043
 30
0.0
 11
2.394686
 21
-5.392608
 31
0.0
  0
LINE
  5
174
100
AcDbEntity
  8
P357_PLAN
 62
     7
100
AcDbLine
 10
-1.948891
 20
-8.763806
 30
0.0
 11
-1.086928
 21
-8.805147
 31
0.0
  0
SPLINE
  5
173
100
AcDbEntity
  8
P357_PLAN
 62
     7
100
AcDbSpline
210
0.0
220
0.0
230
1.0
 70
     8
 71
     3
 72
     8
 73
     4
 74
     0
 42
0.0000001
 43
0.0000001
 40
0.0
 40
0.0
 40
0.0
 40
0.0
 40
1.0
 40
1.0
 40
1.0
 40
1.0
 10
5.613783094618055
 20
-0.248046875
 30
0.0
 10
5.326462131076388
 20
1.265728081597222
 30
0.0
 10
4.791094292534721
 20
2.722314453124999
 30
0.0
 10
4.030417209201388
 20
4.061767578125
 30
0.0
  0
ENDBLK
  5
1CC
100
AcDbEntity
  8
P357_PLAN
100
AcDbBlockEnd
  0
BLOCK
  5
1CF
100
AcDbEntity
  8
P357_PLAN
 62
     7
100
AcDbBlockBegin
  2
AI9-BLK18
 70
     0
 10
0.0
 20
0.0
 30
0.0
  3
AI9-BLK18
  1

  0
SPLINE
  5
228
100
AcDbEntity
  8
P357_PLAN
 62
     7
100
AcDbSpline
210
0.0
220
0.0
230
1.0
 70
     8
 71
     3
 72
     8
 73
     4
 74
     0
 42
0.0000001
 43
0.0000001
 40
0.0
 40
0.0
 40
0.0
 40
0.0
 40
1.0
 40
1.0
 40
1.0
 40
1.0
 10
-1.874476453993055
 20
-10.17362535264757
 30
0.0
 10
-0.8299235026041666
 20
-10.45819023980034
 30
0.0
 10
0.2325439453125
 20
-10.67109714084201
 30
0.0
 10
1.305346679687499
 20
-10.8102789984809
 30
0.0
  0
SPLINE
  5
227
100
AcDbEntity
  8
P357_PLAN
 62
     7
100
AcDbSpline
210
0.0
220
0.0
230
1.0
 70
     8
 71
     3
 72
    11
 73
     7
 74
     0
 42
0.0000001
 43
0.0000001
 40
0.0
 40
0.0
 40
0.0
 40
0.0
 40
1.0
 40
1.0
 40
1.0
 40
2.0
 40
2.0
 40
2.0
 40
2.0
 10
1.305346679687499
 20
-10.8102789984809
 30
0.0
 10
1.992987738715277
 20
-11.04316745334201
 30
0.0
 10
2.739195421006944
 20
-10.67454223632812
 30
0.0
 10
2.972083875868055
 20
-9.986901177300346
 30
0.0
 10
3.141582573784722
 20
-9.488051350911456
 30
0.0
 10
2.996199544270833
 20
-8.936147054036457
 30
0.0
 10
2.602769639756944
 20
-8.584747314453125
 30
0.0
  0
SPLINE
  5
226
100
AcDbEntity
  8
P357_PLAN
 62
     7
100
AcDbSpline
210
0.0
220
0.0
230
-1.0
 70
     8
 71
     3
 72
     8
 73
     4
 74
     0
 42
0.0000001
 43
0.0000001
 40
0.0
 40
0.0
 40
0.0
 40
0.0
 40
1.0
 40
1.0
 40
1.0
 40
1.0
 10
4.030417209201388
 20
4.061853705512151
 30
0.0
 10
3.707267252604166
 20
4.989962429470486
 30
0.0
 10
2.912139214409721
 20
5.673124864366318
 30
0.0
 10
1.946134440104166
 20
5.852958848741319
 30
0.0
  0
SPLINE
  5
225
100
AcDbEntity
  8
P357_PLAN
 62
     7
100
AcDbSpline
210
0.0
220
0.0
230
1.0
 70
     8
 71
     3
 72
     8
 73
     4
 74
     0
 42
0.0000001
 43
0.0000001
 40
0.0
 40
0.0
 40
0.0
 40
0.0
 40
1.0
 40
1.0
 40
1.0
 40
1.0
 10
2.624818250868055
 20
-8.500686984592013
 30
0.0
 10
4.66982693142361
 20
-6.251728651258679
 30
0.0
 10
5.744007703993054
 20
-3.285156928168402
 30
0.0
 10
5.613783094618055
 20
-0.2479607476128472
 30
0.0
  0
SPLINE
  5
224
100
AcDbEntity
  8
P357_PLAN
 62
     7
100
AcDbSpline
210
0.0
220
0.0
230
1.0
 70
     8
 71
     3
 72
    14
 73
    10
 74
     0
 42
0.0000001
 43
0.0000001
 40
0.0
 40
0.0
 40
0.0
 40
0.0
 40
1.0
 40
1.0
 40
1.0
 40
2.0
 40
2.0
 40
2.0
 40
3.0
 40
3.0
 40
3.0
 40
3.0
 10
1.162030707465277
 20
-4.626332600911458
 30
0.0
 10
2.015036349826388
 20
-5.359448920355902
 30
0.0
 10
3.301435004340277
 20
-5.261608208550346
 30
0.0
 10
4.033862304687499
 20
-4.407913547092013
 30
0.0
 10
4.766289605034721
 20
-3.554563395182291
 30
0.0
 10
4.668448893229165
 20
-2.268853759765624
 30
0.0
 10
3.815443250868055
 20
-1.53573744032118
 30
0.0
 10
3.45439724392361
 20
-1.226367865668402
 30
0.0
 10
2.996888563368055
 20
-1.052735053168402
 30
0.0
 10
2.521465386284722
 20
-1.044466824001736
 30
0.0
  0
SPLINE
  5
223
100
AcDbEntity
  8
P357_PLAN
 62
     7
100
AcDbSpline
210
0.0
220
0.0
230
-1.0
 70
     8
 71
     3
 72
    14
 73
    10
 74
     0
 42
0.0000001
 43
0.0000001
 40
0.0
 40
0.0
 40
0.0
 40
0.0
 40
1.0
 40
1.0
 40
1.0
 40
2.0
 40
2.0
 40
2.0
 40
3.0
 40
3.0
 40
3.0
 40
3.0
 10
-4.218519422743055
 20
9.160250515407986
 30
0.0
 10
-4.354945203993055
 20
9.176097954644095
 30
0.0
 10
-4.479657660590277
 20
9.078257242838541
 30
0.0
 10
-4.495505099826388
 20
8.94183146158854
 30
0.0
 10
-4.512041558159721
 20
8.804716661241318
 30
0.0
 10
-4.414200846354166
 20
8.680693223741318
 30
0.0
 10
-4.277086046006943
 20
8.664845784505207
 30
0.0
 10
-4.241946072048611
 20
8.660711669921873
 30
0.0
 10
-4.206117078993055
 20
8.663467746310763
 30
0.0
 10
-4.172355143229165
 20
8.674492051866318
 30
0.0
  0
LINE
  5
222
100
AcDbEntity
  8
P357_PLAN
 62
     7
100
AcDbLine
 10
-3.515031
 20
8.957679
 30
0.0
 11
-4.28122
 21
9.57504
 31
0.0
  0
SPLINE
  5
221
100
AcDbEntity
  8
P357_PLAN
 62
     7
100
AcDbSpline
210
0.0
220
0.0
230
1.0
 70
     8
 71
     3
 72
     8
 73
     4
 74
     0
 42
0.0000001
 43
0.0000001
 40
0.0
 40
0.0
 40
0.0
 40
0.0
 40
1.0
 40
1.0
 40
1.0
 40
1.0
 10
-2.239656575520833
 20
9.933329942491319
 30
0.0
 10
-1.498272026909722
 20
9.065165879991319
 30
0.0
 10
-0.6431993272569444
 20
8.302421739366318
 30
0.0
 10
0.3035129123263889
 20
7.665079074435762
 30
0.0
  0
LINE
  5
220
100
AcDbEntity
  8
P357_PLAN
 62
     7
100
AcDbLine
 10
-4.778003
 20
10.498326
 30
0.0
 11
-4.846216
 21
10.29851
 31
0.0
  0
LINE
  5
21F
100
AcDbEntity
  8
P357_PLAN
 62
     7
100
AcDbLine
 10
-4.63951
 20
10.58652
 30
0.0
 11
-4.778003
 21
10.498326
 31
0.0
  0
LINE
  5
21E
100
AcDbEntity
  8
P357_PLAN
 62
     7
100
AcDbLine
 10
-4.493438
 20
10.558959
 30
0.0
 11
-4.63951
 21
10.58652
 31
0.0
  0
LINE
  5
21D
100
AcDbEntity
  8
P357_PLAN
 62
     7
100
AcDbLine
 10
-4.357012
 20
10.414265
 30
0.0
 11
-4.493438
 21
10.558959
 31
0.0
  0
LINE
  5
21C
100
AcDbEntity
  8
P357_PLAN
 62
     7
100
AcDbLine
 10
-4.34461
 20
10.565849
 30
0.0
 11
-4.355634
 21
10.401863
 31
0.0
  0
LINE
  5
21B
100
AcDbEntity
  8
P357_PLAN
 62
     7
100
AcDbLine
 10
-3.770657
 20
9.167141
 30
0.0
 11
-4.312915
 21
9.144403
 31
0.0
  0
LINE
  5
21A
100
AcDbEntity
  8
P357_PLAN
 62
     7
100
AcDbLine
 10
-4.507218
 20
9.773478
 30
0.0
 11
-4.100697
 21
9.402785
 31
0.0
  0
LINE
  5
219
100
AcDbEntity
  8
P357_PLAN
 62
     7
100
AcDbLine
 10
-4.847594
 20
10.33365
 30
0.0
 11
-4.507218
 21
9.773478
 31
0.0
  0
LINE
  5
218
100
AcDbEntity
  8
P357_PLAN
 62
     7
100
AcDbLine
 10
-4.355634
 20
10.401863
 30
0.0
 11
-3.911217
 21
9.896812
 31
0.0
  0
LINE
  5
217
100
AcDbEntity
  8
P357_PLAN
 62
     7
100
AcDbLine
 10
-3.998722
 20
10.73397
 30
0.0
 11
-4.189581
 21
10.739482
 31
0.0
  0
LINE
  5
216
100
AcDbEntity
  8
P357_PLAN
 62
     7
100
AcDbLine
 10
-3.026516
 20
10.848347
 30
0.0
 11
-2.823945
 21
10.68505
 31
0.0
  0
LINE
  5
215
100
AcDbEntity
  8
P357_PLAN
 62
     7
100
AcDbLine
 10
-3.189814
 20
10.804939
 30
0.0
 11
-3.026516
 21
10.848347
 31
0.0
  0
SPLINE
  5
214
100
AcDbEntity
  8
P357_PLAN
 62
     7
100
AcDbSpline
210
0.0
220
0.0
230
1.0
 70
     8
 71
     3
 72
     8
 73
     4
 74
     0
 42
0.0000001
 43
0.0000001
 40
0.0
 40
0.0
 40
0.0
 40
0.0
 40
1.0
 40
1.0
 40
1.0
 40
1.0
 10
-2.029505750868055
 20
9.714221869574652
 30
0.0
 10
-2.241723632812499
 20
10.07802395290798
 30
0.0
 10
-2.509752061631944
 20
10.40530802408854
 30
0.0
 10
-2.823944769965277
 20
10.68504977756076
 30
0.0
  0
LINE
  5
213
100
AcDbEntity
  8
P357_PLAN
 62
     7
100
AcDbLine
 10
-3.285588
 20
10.649221
 30
0.0
 11
-2.993443
 21
10.246834
 31
0.0
  0
LINE
  5
212
100
AcDbEntity
  8
P357_PLAN
 62
     7
100
AcDbLine
 10
-3.864364
 20
10.584453
 30
0.0
 11
-3.498494
 21
10.083536
 31
0.0
  0
LINE
  5
211
100
AcDbEntity
  8
P357_PLAN
 62
     7
100
AcDbLine
 10
-3.805797
 20
10.789092
 30
0.0
 11
-3.864364
 21
10.584453
 31
0.0
  0
LINE
  5
210
100
AcDbEntity
  8
P357_PLAN
 62
     7
100
AcDbLine
 10
-3.659036
 20
10.876597
 30
0.0
 11
-3.805797
 21
10.789092
 31
0.0
  0
LINE
  5
20F
100
AcDbEntity
  8
P357_PLAN
 62
     7
100
AcDbLine
 10
-3.451641
 20
10.771177
 30
0.0
 11
-3.659036
 21
10.876597
 31
0.0
  0
LINE
  5
20E
100
AcDbEntity
  8
P357_PLAN
 62
     7
100
AcDbLine
 10
-3.285588
 20
10.649221
 30
0.0
 11
-3.451641
 21
10.771177
 31
0.0
  0
LINE
  5
20D
100
AcDbEntity
  8
P357_PLAN
 62
     7
100
AcDbLine
 10
-3.189814
 20
10.804939
 30
0.0
 11
-3.285588
 21
10.649221
 31
0.0
  0
LINE
  5
20C
100
AcDbEntity
  8
P357_PLAN
 62
     7
100
AcDbLine
 10
-1.810398
 20
9.370401
 30
0.0
 11
-2.008146
 21
9.7156
 31
0.0
  0
LINE
  5
20B
100
AcDbEntity
  8
P357_PLAN
 62
     7
100
AcDbLine
 10
-3.860229
 20
10.576874
 30
0.0
 11
-3.998722
 21
10.73397
 31
0.0
  0
LINE
  5
20A
100
AcDbEntity
  8
P357_PLAN
 62
     7
100
AcDbLine
 10
-4.189581
 20
10.739482
 30
0.0
 11
-4.34461
 21
10.565849
 31
0.0
  0
SPLINE
  5
209
100
AcDbEntity
  8
P357_PLAN
 62
     7
100
AcDbSpline
210
0.0
220
0.0
230
-1.0
 70
     8
 71
     3
 72
     8
 73
     4
 74
     0
 42
0.0000001
 43
0.0000001
 40
0.0
 40
0.0
 40
0.0
 40
0.0
 40
1.0
 40
1.0
 40
1.0
 40
1.0
 10
2.225876193576388
 20
1.542799886067708
 30
0.0
 10
1.232310655381944
 20
1.049462212456597
 30
0.0
 10
0.6838514539930555
 20
-0.0419440375434028
 30
0.0
 10
0.8815999348958332
 20
-1.134039306640624
 30
0.0
  0
SPLINE
  5
208
100
AcDbEntity
  8
P357_PLAN
 62
     7
100
AcDbSpline
210
0.0
220
0.0
230
-1.0
 70
     8
 71
     3
 72
    11
 73
     7
 74
     0
 42
0.0000001
 43
0.0000001
 40
0.0
 40
0.0
 40
0.0
 40
0.0
 40
1.0
 40
1.0
 40
1.0
 40
2.0
 40
2.0
 40
2.0
 40
2.0
 10
1.425236002604166
 20
-1.034820556640625
 30
0.0
 10
0.5157307942708333
 20
-0.9562723795572916
 30
0.0
 10
-0.2855984157986111
 20
-1.630133056640624
 30
0.0
 10
-0.3641465928819444
 20
-2.539638264973957
 30
0.0
 10
-0.4220241970486111
 20
-3.205919731987846
 30
0.0
 10
-0.0726915147569445
 20
-3.841195339626736
 30
0.0
 10
0.5212429470486111
 20
-4.14953138563368
 30
0.0
  0
LINE
  5
207
100
AcDbEntity
  8
P357_PLAN
 62
     7
100
AcDbLine
 10
-2.924542
 20
8.686894
 30
0.0
 11
-2.601392
 21
8.686205
 31
0.0
  0
LINE
  5
206
100
AcDbEntity
  8
P357_PLAN
 62
     7
100
AcDbLine
 10
-3.395142
 20
8.60559
 30
0.0
 11
-2.924542
 21
8.686894
 31
0.0
  0
LINE
  5
205
100
AcDbEntity
  8
P357_PLAN
 62
     7
100
AcDbLine
 10
-4.370104
 20
8.695163
 30
0.0
 11
-3.395142
 21
8.60559
 31
0.0
  0
LINE
  5
204
100
AcDbEntity
  8
P357_PLAN
 62
     7
100
AcDbLine
 10
-2.442228
 20
8.604212
 30
0.0
 11
-2.580721
 21
8.649687
 31
0.0
  0
SPLINE
  5
203
100
AcDbEntity
  8
P357_PLAN
 62
     7
100
AcDbSpline
210
0.0
220
0.0
230
-1.0
 70
     8
 71
     3
 72
     8
 73
     4
 74
     0
 42
0.0000001
 43
0.0000001
 40
0.0
 40
0.0
 40
0.0
 40
0.0
 40
1.0
 40
1.0
 40
1.0
 40
1.0
 10
1.571308051215277
 20
4.109396023220485
 30
0.0
 10
1.855872938368055
 20
2.666934543185763
 30
0.0
 10
2.272040473090277
 20
1.253411865234374
 30
0.0
 10
2.813609483506944
 20
-0.1132575141059028
 30
0.0
  0
SPLINE
  5
202
100
AcDbEntity
  8
P357_PLAN
 62
     7
100
AcDbSpline
210
0.0
220
0.0
230
-1.0
 70
     8
 71
     3
 72
     8
 73
     4
 74
     0
 42
0.0000001
 43
0.0000001
 40
0.0
 40
0.0
 40
0.0
 40
0.0
 40
1.0
 40
1.0
 40
1.0
 40
1.0
 10
2.308558485243055
 20
5.849513753255207
 30
0.0
 10
1.91650661892361
 20
6.70320841471354
 30
0.0
 10
1.191658528645833
 20
7.359154595269096
 30
0.0
 10
0.3035129123263889
 20
7.665079074435762
 30
0.0
  0
SPLINE
  5
201
100
AcDbEntity
  8
P357_PLAN
 62
     7
100
AcDbSpline
210
0.0
220
0.0
230
-1.0
 70
     8
 71
     3
 72
     8
 73
     4
 74
     0
 42
0.0000001
 43
0.0000001
 40
0.0
 40
0.0
 40
0.0
 40
0.0
 40
1.0
 40
1.0
 40
1.0
 40
1.0
 10
-2.495282660590277
 20
8.652443440755208
 30
0.0
 10
-1.262627495659722
 20
7.032559543185763
 30
0.0
 10
0.0974962022569445
 20
5.513272433810763
 30
0.0
 10
1.571308051215277
 20
4.109396023220485
 30
0.0
  0
LINE
  5
200
100
AcDbEntity
  8
P357_PLAN
 62
     7
100
AcDbLine
 10
-5.624118
 20
-8.61093
 30
0.0
 11
-5.535235
 21
-8.419383
 31
0.0
  0
LINE
  5
1FF
100
AcDbEntity
  8
P357_PLAN
 62
     7
100
AcDbLine
 10
-5.584844
 20
-8.770093
 30
0.0
 11
-5.624118
 21
-8.61093
 31
0.0
  0
LINE
  5
1FE
100
AcDbEntity
  8
P357_PLAN
 62
     7
100
AcDbLine
 10
-5.460821
 20
-8.851398
 30
0.0
 11
-5.584844
 21
-8.770093
 31
0.0
  0
LINE
  5
1FD
100
AcDbEntity
  8
P357_PLAN
 62
     7
100
AcDbLine
 10
-5.56004
 20
-8.444187
 30
0.0
 11
-4.926831
 21
-8.275378
 31
0.0
  0
LINE
  5
1FC
100
AcDbEntity
  8
P357_PLAN
 62
     7
100
AcDbLine
 10
-5.261694
 20
-8.841751
 30
0.0
 11
-5.460821
 21
-8.851398
 31
0.0
  0
LINE
  5
1FB
100
AcDbEntity
  8
P357_PLAN
 62
     7
100
AcDbLine
 10
-5.357468
 20
-8.959574
 30
0.0
 11
-5.252737
 21
-8.833483
 31
0.0
  0
LINE
  5
1FA
100
AcDbEntity
  8
P357_PLAN
 62
     7
100
AcDbLine
 10
-4.601614
 20
-10.075785
 30
0.0
 11
-4.342543
 21
-10.097833
 31
0.0
  0
LINE
  5
1F9
100
AcDbEntity
  8
P357_PLAN
 62
     7
100
AcDbLine
 10
-4.689119
 20
-9.931091
 30
0.0
 11
-4.601614
 21
-10.075785
 31
0.0
  0
SPLINE
  5
1F8
100
AcDbEntity
  8
P357_PLAN
 62
     7
100
AcDbSpline
210
0.0
220
0.0
230
1.0
 70
     8
 71
     3
 72
     8
 73
     4
 74
     0
 42
0.0000001
 43
0.0000001
 40
0.0
 40
0.0
 40
0.0
 40
0.0
 40
1.0
 40
1.0
 40
1.0
 40
1.0
 10
-4.342542860243055
 20
-10.09783325195312
 30
0.0
 10
-3.922241210937499
 20
-10.11299167209201
 30
0.0
 10
-3.501939561631944
 20
-10.06200425889756
 30
0.0
 10
-3.097485351562499
 20
-9.946249050564235
 30
0.0
  0
LINE
  5
1F7
100
AcDbEntity
  8
P357_PLAN
 62
     7
100
AcDbLine
 10
-4.650534
 20
-9.752635
 30
0.0
 11
-4.16202
 21
-9.663751
 31
0.0
  0
LINE
  5
1F6
100
AcDbEntity
  8
P357_PLAN
 62
     7
100
AcDbLine
 10
-5.224487
 20
-9.319931
 30
0.0
 11
-5.366425
 21
-9.191773
 31
0.0
  0
LINE
  5
1F5
100
AcDbEntity
  8
P357_PLAN
 62
     7
100
AcDbLine
 10
-5.015715
 20
-9.302016
 30
0.0
 11
-5.224487
 21
-9.319931
 31
0.0
  0
LINE
  5
1F4
100
AcDbEntity
  8
P357_PLAN
 62
     7
100
AcDbLine
 10
-5.023983
 20
-9.305461
 30
0.0
 11
-4.413512
 21
-9.196596
 31
0.0
  0
LINE
  5
1F3
100
AcDbEntity
  8
P357_PLAN
 62
     7
100
AcDbLine
 10
-5.123201
 20
-9.493564
 30
0.0
 11
-5.023983
 21
-9.305461
 31
0.0
  0
LINE
  5
1F2
100
AcDbEntity
  8
P357_PLAN
 62
     7
100
AcDbLine
 10
-5.077726
 20
-9.658239
 30
0.0
 11
-5.123201
 21
-9.493564
 31
0.0
  0
LINE
  5
1F1
100
AcDbEntity
  8
P357_PLAN
 62
     7
100
AcDbLine
 10
-4.855173
 20
-9.725763
 30
0.0
 11
-5.077726
 21
-9.658239
 31
0.0
  0
LINE
  5
1F0
100
AcDbEntity
  8
P357_PLAN
 62
     7
100
AcDbLine
 10
-4.650534
 20
-9.752635
 30
0.0
 11
-4.855173
 21
-9.725763
 31
0.0
  0
LINE
  5
1EF
100
AcDbEntity
  8
P357_PLAN
 62
     7
100
AcDbLine
 10
-4.689119
 20
-9.931091
 30
0.0
 11
-4.650534
 21
-9.752635
 31
0.0
  0
LINE
  5
1EE
100
AcDbEntity
  8
P357_PLAN
 62
     7
100
AcDbLine
 10
-5.252737
 20
-8.833483
 30
0.0
 11
-4.582322
 21
-8.776295
 31
0.0
  0
LINE
  5
1ED
100
AcDbEntity
  8
P357_PLAN
 62
     7
100
AcDbLine
 10
-5.366425
 20
-9.191773
 30
0.0
 11
-5.357468
 21
-8.959574
 31
0.0
  0
LINE
  5
1EC
100
AcDbEntity
  8
P357_PLAN
 62
     7
100
AcDbLine
 10
-3.975985
 20
-8.346347
 30
0.0
 11
-4.3515
 21
-7.954984
 31
0.0
  0
LINE
  5
1EB
100
AcDbEntity
  8
P357_PLAN
 62
     7
100
AcDbLine
 10
-3.032718
 20
-8.585436
 30
0.0
 11
-2.79914
 21
-8.80799
 31
0.0
  0
LINE
  5
1EA
100
AcDbEntity
  8
P357_PLAN
 62
     7
100
AcDbLine
 10
-3.315904
 20
-8.200964
 30
0.0
 11
-3.032718
 21
-8.585436
 31
0.0
  0
LINE
  5
1E9
100
AcDbEntity
  8
P357_PLAN
 62
     7
100
AcDbLine
 10
-2.626885
 20
-8.858977
 30
0.0
 11
-2.758488
 21
-8.796276
 31
0.0
  0
LINE
  5
1E8
100
AcDbEntity
  8
P357_PLAN
 62
     7
100
AcDbLine
 10
-2.626885
 20
-8.858977
 30
0.0
 11
-1.948891
 21
-8.763892
 31
0.0
  0
SPLINE
  5
1E7
100
AcDbEntity
  8
P357_PLAN
 62
     7
100
AcDbSpline
210
0.0
220
0.0
230
1.0
 70
     8
 71
     3
 72
    14
 73
    10
 74
     0
 42
0.0000001
 43
0.0000001
 40
0.0
 40
0.0
 40
0.0
 40
0.0
 40
1.0
 40
1.0
 40
1.0
 40
2.0
 40
2.0
 40
2.0
 40
3.0
 40
3.0
 40
3.0
 40
3.0
 10
-3.924997287326388
 20
-7.713138156467013
 30
0.0
 10
-3.991143120659721
 20
-7.591870795355902
 30
0.0
 10
-4.14272732204861
 20
-7.547773573133679
 30
0.0
 10
-4.263994683159721
 20
-7.613230387369791
 30
0.0
 10
-4.38457302517361
 20
-7.679376220703124
 30
0.0
 10
-4.429359266493055
 20
-7.830960422092013
 30
0.0
 10
-4.363213433159721
 20
-7.952227783203124
 30
0.0
 10
-4.345987955729166
 20
-7.983233642578124
 30
0.0
 10
-4.32256130642361
 20
-8.01010538736979
 30
0.0
 10
-4.2943115234375
 20
-8.031464979383679
 30
0.0
  0
LINE
  5
1E6
100
AcDbEntity
  8
P357_PLAN
 62
     7
100
AcDbLine
 10
-4.082094
 20
-7.591182
 30
0.0
 11
-3.315904
 21
-8.200964
 31
0.0
  0
LINE
  5
1E5
100
AcDbEntity
  8
P357_PLAN
 62
     7
100
AcDbLine
 10
1.16961
 20
-4.662162
 30
0.0
 11
0.2918
 21
-4.005871
 31
0.0
  0
LINE
  5
1E4
100
AcDbEntity
  8
P357_PLAN
 62
     7
100
AcDbLine
 10
1.453486
 20
-4.986001
 30
0.0
 11
1.519632
 21
-5.107957
 31
0.0
  0
LINE
  5
1E3
100
AcDbEntity
  8
P357_PLAN
 62
     7
100
AcDbLine
 10
-3.645945
 20
-8.372529
 30
0.0
 11
-4.627108
 21
-8.28778
 31
0.0
  0
LINE
  5
1E2
100
AcDbEntity
  8
P357_PLAN
 62
     7
100
AcDbLine
 10
-4.926831
 20
-8.275378
 30
0.0
 11
-4.376994
 21
-8.288469
 31
0.0
  0
SPLINE
  5
1E1
100
AcDbEntity
  8
P357_PLAN
 62
     7
100
AcDbSpline
210
0.0
220
0.0
230
1.0
 70
     8
 71
     3
 72
     8
 73
     4
 74
     0
 42
0.0000001
 43
0.0000001
 40
0.0
 40
0.0
 40
0.0
 40
0.0
 40
1.0
 40
1.0
 40
1.0
 40
1.0
 10
2.243101671006944
 20
-1.059625244140624
 30
0.0
 10
2.240345594618055
 20
-1.059625244140624
 30
0.0
 10
2.236900499131944
 20
-1.060314263237847
 30
0.0
 10
2.233455403645832
 20
-1.060314263237847
 30
0.0
  0
LINE
  5
1E0
100
AcDbEntity
  8
P357_PLAN
 62
     7
100
AcDbLine
 10
2.632397
 20
-1.055491
 30
0.0
 11
2.471167
 21
-0.923888
 31
0.0
  0
LINE
  5
1DF
100
AcDbEntity
  8
P357_PLAN
 62
     7
100
AcDbLine
 10
2.471167
 20
-0.923888
 30
0.0
 11
2.587611
 21
-0.848785
 31
0.0
  0
LINE
  5
1DE
100
AcDbEntity
  8
P357_PLAN
 62
     7
100
AcDbLine
 10
2.491149
 20
-1.021729
 30
0.0
 11
1.273652
 21
-1.029308
 31
0.0
  0
LINE
  5
1DD
100
AcDbEntity
  8
P357_PLAN
 62
     7
100
AcDbLine
 10
3.510897
 20
-1.041022
 30
0.0
 11
3.585311
 21
-1.22499
 31
0.0
  0
LINE
  5
1DC
100
AcDbEntity
  8
P357_PLAN
 62
     7
100
AcDbLine
 10
3.585311
 20
-1.22499
 30
0.0
 11
3.437861
 21
-1.23188
 31
0.0
  0
LINE
  5
1DB
100
AcDbEntity
  8
P357_PLAN
 62
     7
100
AcDbLine
 10
2.587611
 20
-0.848785
 30
0.0
 11
3.510897
 21
-1.041022
 31
0.0
  0
LINE
  5
1DA
100
AcDbEntity
  8
P357_PLAN
 62
     7
100
AcDbLine
 10
-1.874476
 20
-10.173625
 30
0.0
 11
-2.701299
 21
-9.849097
 31
0.0
  0
LINE
  5
1D9
100
AcDbEntity
  8
P357_PLAN
 62
     7
100
AcDbLine
 10
-1.086928
 20
-8.805233
 30
0.0
 11
0.111966
 21
-8.663985
 31
0.0
  0
LINE
  5
1D8
100
AcDbEntity
  8
P357_PLAN
 62
     7
100
AcDbLine
 10
2.394686
 20
-5.392522
 30
0.0
 11
2.556605
 21
-5.329132
 31
0.0
  0
LINE
  5
1D7
100
AcDbEntity
  8
P357_PLAN
 62
     7
100
AcDbLine
 10
2.556605
 20
-5.329132
 30
0.0
 11
2.426381
 21
-5.175481
 31
0.0
  0
LINE
  5
1D6
100
AcDbEntity
  8
P357_PLAN
 62
     7
100
AcDbLine
 10
-2.701299
 20
-9.849097
 30
0.0
 11
-3.082327
 21
-9.961407
 31
0.0
  0
SPLINE
  5
1D5
100
AcDbEntity
  8
P357_PLAN
 62
     7
100
AcDbSpline
210
0.0
220
0.0
230
-1.0
 70
     8
 71
     3
 72
    11
 73
     7
 74
     0
 42
0.0000001
 43
0.0000001
 40
0.0
 40
0.0
 40
0.0
 40
0.0
 40
1.0
 40
1.0
 40
1.0
 40
2.0
 40
2.0
 40
2.0
 40
2.0
 10
0.1781114366319444
 20
-6.706481255425346
 30
0.0
 10
-0.4227132161458333
 20
-7.453377956814235
 30
0.0
 10
-0.3042019314236111
 20
-8.545473225911457
 30
0.0
 10
0.4426947699652778
 20
-9.145608859592012
 30
0.0
 10
0.4771457248263889
 20
-9.173169623480902
 30
0.0
 10
0.5129747178819444
 20
-9.200041368272568
 30
0.0
 10
0.5494927300347223
 20
-9.224846055772568
 30
0.0
  0
SPLINE
  5
1D4
100
AcDbEntity
  8
P357_PLAN
 62
     7
100
AcDbSpline
210
0.0
220
0.0
230
-1.0
 70
     8
 71
     3
 72
     8
 73
     4
 74
     0
 42
0.0000001
 43
0.0000001
 40
0.0
 40
0.0
 40
0.0
 40
0.0
 40
1.0
 40
1.0
 40
1.0
 40
1.0
 10
-0.0995632595486111
 20
-3.539404975043402
 30
0.0
 10
-0.4964382595486111
 20
-4.581546359592013
 30
0.0
 10
-0.3944634331597222
 20
-5.748744710286457
 30
0.0
 10
0.1781114366319444
 20
-6.706481255425346
 30
0.0
  0
LINE
  5
1D3
100
AcDbEntity
  8
P357_PLAN
 62
     7
100
AcDbLine
 10
1.680862
 20
-4.954306
 30
0.0
 11
1.453486
 21
-4.986001
 31
0.0
  0
LINE
  5
1D2
100
AcDbEntity
  8
P357_PLAN
 62
     7
100
AcDbLine
 10
1.519632
 20
-5.107957
 30
0.0
 11
2.394686
 21
-5.392522
 31
0.0
  0
LINE
  5
1D1
100
AcDbEntity
  8
P357_PLAN
 62
     7
100
AcDbLine
 10
-1.948891
 20
-8.763892
 30
0.0
 11
-1.086928
 21
-8.805233
 31
0.0
  0
SPLINE
  5
1D0
100
AcDbEntity
  8
P357_PLAN
 62
     7
100
AcDbSpline
210
0.0
220
0.0
230
1.0
 70
     8
 71
     3
 72
     8
 73
     4
 74
     0
 42
0.0000001
 43
0.0000001
 40
0.0
 40
0.0
 40
0.0
 40
0.0
 40
1.0
 40
1.0
 40
1.0
 40
1.0
 10
5.613783094618055
 20
-0.2479607476128472
 30
0.0
 10
5.326462131076388
 20
1.265814208984374
 30
0.0
 10
4.791094292534721
 20
2.722400580512152
 30
0.0
 10
4.030417209201388
 20
4.061853705512151
 30
0.0
  0
ENDBLK
  5
229
100
AcDbEntity
  8
P357_PLAN
100
AcDbBlockEnd
  0
BLOCK
  5
22C
100
AcDbEntity
  8
P357_PLAN
 62
     7
100
AcDbBlockBegin
  2
AI9-BLK19
 70
     0
 10
0.0
 20
0.0
 30
0.0
  3
AI9-BLK19
  1

  0
SPLINE
  5
285
100
AcDbEntity
  8
P357_PLAN
 62
     7
100
AcDbSpline
210
0.0
220
0.0
230
1.0
 70
     8
 71
     3
 72
     8
 73
     4
 74
     0
 42
0.0000001
 43
0.0000001
 40
0.0
 40
0.0
 40
0.0
 40
0.0
 40
1.0
 40
1.0
 40
1.0
 40
1.0
 10
-1.874476453993055
 20
-10.17216118706597
 30
0.0
 10
-0.8299235026041666
 20
-10.45672607421874
 30
0.0
 10
0.2325439453125
 20
-10.66963297526041
 30
0.0
 10
1.305346679687499
 20
-10.8088148328993
 30
0.0
  0
SPLINE
  5
284
100
AcDbEntity
  8
P357_PLAN
 62
     7
100
AcDbSpline
210
0.0
220
0.0
230
1.0
 70
     8
 71
     3
 72
    11
 73
     7
 74
     0
 42
0.0000001
 43
0.0000001
 40
0.0
 40
0.0
 40
0.0
 40
0.0
 40
1.0
 40
1.0
 40
1.0
 40
2.0
 40
2.0
 40
2.0
 40
2.0
 10
1.305346679687499
 20
-10.8088148328993
 30
0.0
 10
1.992987738715277
 20
-11.04170328776041
 30
0.0
 10
2.739195421006944
 20
-10.67307807074652
 30
0.0
 10
2.972083875868055
 20
-9.985437011718749
 30
0.0
 10
3.141582573784722
 20
-9.48658718532986
 30
0.0
 10
2.996199544270833
 20
-8.93468288845486
 30
0.0
 10
2.603458658854166
 20
-8.583283148871526
 30
0.0
  0
SPLINE
  5
283
100
AcDbEntity
  8
P357_PLAN
 62
     7
100
AcDbSpline
210
0.0
220
0.0
230
-1.0
 70
     8
 71
     3
 72
     8
 73
     4
 74
     0
 42
0.0000001
 43
0.0000001
 40
0.0
 40
0.0
 40
0.0
 40
0.0
 40
1.0
 40
1.0
 40
1.0
 40
1.0
 10
4.030417209201388
 20
4.062973361545138
 30
0.0
 10
3.707956271701388
 20
4.991082085503471
 30
0.0
 10
2.912139214409721
 20
5.674589029947916
 30
0.0
 10
1.946134440104166
 20
5.854423014322915
 30
0.0
  0
SPLINE
  5
282
100
AcDbEntity
  8
P357_PLAN
 62
     7
100
AcDbSpline
210
0.0
220
0.0
230
1.0
 70
     8
 71
     3
 72
     8
 73
     4
 74
     0
 42
0.0000001
 43
0.0000001
 40
0.0
 40
0.0
 40
0.0
 40
0.0
 40
1.0
 40
1.0
 40
1.0
 40
1.0
 10
2.624818250868055
 20
-8.499222819010416
 30
0.0
 10
4.66982693142361
 20
-6.250264485677083
 30
0.0
 10
5.744696723090277
 20
-3.284037272135416
 30
0.0
 10
5.613783094618055
 20
-0.2468410915798611
 30
0.0
  0
SPLINE
  5
281
100
AcDbEntity
  8
P357_PLAN
 62
     7
100
AcDbSpline
210
0.0
220
0.0
230
1.0
 70
     8
 71
     3
 72
    14
 73
    10
 74
     0
 42
0.0000001
 43
0.0000001
 40
0.0
 40
0.0
 40
0.0
 40
0.0
 40
1.0
 40
1.0
 40
1.0
 40
2.0
 40
2.0
 40
2.0
 40
3.0
 40
3.0
 40
3.0
 40
3.0
 10
1.162030707465277
 20
-4.62486843532986
 30
0.0
 10
2.01572536892361
 20
-5.357984754774305
 30
0.0
 10
3.301435004340277
 20
-5.260144042968749
 30
0.0
 10
4.034551323784722
 20
-4.406449381510416
 30
0.0
 10
4.766978624131944
 20
-3.553443739149305
 30
0.0
 10
4.669137912326388
 20
-2.267734103732638
 30
0.0
 10
3.815443250868055
 20
-1.534617784288194
 30
0.0
 10
3.455086263020833
 20
-1.225248209635416
 30
0.0
 10
2.996888563368055
 20
-1.051615397135416
 30
0.0
 10
2.521465386284722
 20
-1.043347167968749
 30
0.0
  0
SPLINE
  5
280
100
AcDbEntity
  8
P357_PLAN
 62
     7
100
AcDbSpline
210
0.0
220
0.0
230
-1.0
 70
     8
 71
     3
 72
    14
 73
    10
 74
     0
 42
0.0000001
 43
0.0000001
 40
0.0
 40
0.0
 40
0.0
 40
0.0
 40
1.0
 40
1.0
 40
1.0
 40
2.0
 40
2.0
 40
2.0
 40
3.0
 40
3.0
 40
3.0
 40
3.0
 10
-4.218519422743055
 20
9.161714680989582
 30
0.0
 10
-4.354945203993055
 20
9.177562120225694
 30
0.0
 10
-4.478968641493055
 20
9.079721408420137
 30
0.0
 10
-4.495505099826388
 20
8.943295627170138
 30
0.0
 10
-4.5113525390625
 20
8.806180826822915
 30
0.0
 10
-4.414200846354166
 20
8.682157389322915
 30
0.0
 10
-4.277086046006943
 20
8.666309950086803
 30
0.0
 10
-4.241946072048611
 20
8.662175835503472
 30
0.0
 10
-4.206117078993055
 20
8.66493191189236
 30
0.0
 10
-4.172355143229165
 20
8.675956217447915
 30
0.0
  0
LINE
  5
27F
100
AcDbEntity
  8
P357_PLAN
 62
     7
100
AcDbLine
 10
-3.515031
 20
8.959143
 30
0.0
 11
-4.28122
 21
9.576504
 31
0.0
  0
SPLINE
  5
27E
100
AcDbEntity
  8
P357_PLAN
 62
     7
100
AcDbSpline
210
0.0
220
0.0
230
1.0
 70
     8
 71
     3
 72
     8
 73
     4
 74
     0
 42
0.0000001
 43
0.0000001
 40
0.0
 40
0.0
 40
0.0
 40
0.0
 40
1.0
 40
1.0
 40
1.0
 40
1.0
 10
-2.239656575520833
 20
9.934794108072916
 30
0.0
 10
-1.498272026909722
 20
9.066630045572916
 30
0.0
 10
-0.6425103081597223
 20
8.303885904947916
 30
0.0
 10
0.3035129123263889
 20
7.66654324001736
 30
0.0
  0
LINE
  5
27D
100
AcDbEntity
  8
P357_PLAN
 62
     7
100
AcDbLine
 10
-4.777314
 20
10.49979
 30
0.0
 11
-4.845527
 21
10.299974
 31
0.0
  0
LINE
  5
27C
100
AcDbEntity
  8
P357_PLAN
 62
     7
100
AcDbLine
 10
-4.63951
 20
10.587984
 30
0.0
 11
-4.777314
 21
10.49979
 31
0.0
  0
LINE
  5
27B
100
AcDbEntity
  8
P357_PLAN
 62
     7
100
AcDbLine
 10
-4.493438
 20
10.560423
 30
0.0
 11
-4.63951
 21
10.587984
 31
0.0
  0
LINE
  5
27A
100
AcDbEntity
  8
P357_PLAN
 62
     7
100
AcDbLine
 10
-4.356323
 20
10.415729
 30
0.0
 11
-4.493438
 21
10.560423
 31
0.0
  0
LINE
  5
279
100
AcDbEntity
  8
P357_PLAN
 62
     7
100
AcDbLine
 10
-4.343921
 20
10.567314
 30
0.0
 11
-4.355634
 21
10.403327
 31
0.0
  0
LINE
  5
278
100
AcDbEntity
  8
P357_PLAN
 62
     7
100
AcDbLine
 10
-3.770657
 20
9.168605
 30
0.0
 11
-4.312226
 21
9.145867
 31
0.0
  0
LINE
  5
277
100
AcDbEntity
  8
P357_PLAN
 62
     7
100
AcDbLine
 10
-4.506529
 20
9.774942
 30
0.0
 11
-4.100008
 21
9.404249
 31
0.0
  0
LINE
  5
276
100
AcDbEntity
  8
P357_PLAN
 62
     7
100
AcDbLine
 10
-4.847594
 20
10.335114
 30
0.0
 11
-4.506529
 21
9.774942
 31
0.0
  0
LINE
  5
275
100
AcDbEntity
  8
P357_PLAN
 62
     7
100
AcDbLine
 10
-4.355634
 20
10.403327
 30
0.0
 11
-3.911217
 21
9.898276
 31
0.0
  0
LINE
  5
274
100
AcDbEntity
  8
P357_PLAN
 62
     7
100
AcDbLine
 10
-3.998722
 20
10.735434
 30
0.0
 11
-4.189581
 21
10.740946
 31
0.0
  0
LINE
  5
273
100
AcDbEntity
  8
P357_PLAN
 62
     7
100
AcDbLine
 10
-3.025827
 20
10.849811
 30
0.0
 11
-2.823945
 21
10.686514
 31
0.0
  0
LINE
  5
272
100
AcDbEntity
  8
P357_PLAN
 62
     7
100
AcDbLine
 10
-3.189125
 20
10.806403
 30
0.0
 11
-3.025827
 21
10.849811
 31
0.0
  0
SPLINE
  5
271
100
AcDbEntity
  8
P357_PLAN
 62
     7
100
AcDbSpline
210
0.0
220
0.0
230
1.0
 70
     8
 71
     3
 72
     8
 73
     4
 74
     0
 42
0.0000001
 43
0.0000001
 40
0.0
 40
0.0
 40
0.0
 40
0.0
 40
1.0
 40
1.0
 40
1.0
 40
1.0
 10
-2.029505750868055
 20
9.715686035156249
 30
0.0
 10
-2.241034613715277
 20
10.07948811848958
 30
0.0
 10
-2.509063042534721
 20
10.40677218967013
 30
0.0
 10
-2.823944769965277
 20
10.68651394314236
 30
0.0
  0
LINE
  5
270
100
AcDbEntity
  8
P357_PLAN
 62
     7
100
AcDbLine
 10
-3.284899
 20
10.650685
 30
0.0
 11
-2.993443
 21
10.248298
 31
0.0
  0
LINE
  5
26F
100
AcDbEntity
  8
P357_PLAN
 62
     7
100
AcDbLine
 10
-3.864364
 20
10.585917
 30
0.0
 11
-3.498494
 21
10.085
 31
0.0
  0
LINE
  5
26E
100
AcDbEntity
  8
P357_PLAN
 62
     7
100
AcDbLine
 10
-3.805108
 20
10.790556
 30
0.0
 11
-3.864364
 21
10.585917
 31
0.0
  0
LINE
  5
26D
100
AcDbEntity
  8
P357_PLAN
 62
     7
100
AcDbLine
 10
-3.659036
 20
10.878061
 30
0.0
 11
-3.805108
 21
10.790556
 31
0.0
  0
LINE
  5
26C
100
AcDbEntity
  8
P357_PLAN
 62
     7
100
AcDbLine
 10
-3.450952
 20
10.772641
 30
0.0
 11
-3.659036
 21
10.878061
 31
0.0
  0
LINE
  5
26B
100
AcDbEntity
  8
P357_PLAN
 62
     7
100
AcDbLine
 10
-3.284899
 20
10.650685
 30
0.0
 11
-3.450952
 21
10.772641
 31
0.0
  0
LINE
  5
26A
100
AcDbEntity
  8
P357_PLAN
 62
     7
100
AcDbLine
 10
-3.189125
 20
10.806403
 30
0.0
 11
-3.284899
 21
10.650685
 31
0.0
  0
LINE
  5
269
100
AcDbEntity
  8
P357_PLAN
 62
     7
100
AcDbLine
 10
-1.810398
 20
9.371866
 30
0.0
 11
-2.008146
 21
9.717064
 31
0.0
  0
LINE
  5
268
100
AcDbEntity
  8
P357_PLAN
 62
     7
100
AcDbLine
 10
-3.860229
 20
10.578338
 30
0.0
 11
-3.998722
 21
10.735434
 31
0.0
  0
LINE
  5
267
100
AcDbEntity
  8
P357_PLAN
 62
     7
100
AcDbLine
 10
-4.189581
 20
10.740946
 30
0.0
 11
-4.343921
 21
10.567314
 31
0.0
  0
SPLINE
  5
266
100
AcDbEntity
  8
P357_PLAN
 62
     7
100
AcDbSpline
210
0.0
220
0.0
230
-1.0
 70
     8
 71
     3
 72
     8
 73
     4
 74
     0
 42
0.0000001
 43
0.0000001
 40
0.0
 40
0.0
 40
0.0
 40
0.0
 40
1.0
 40
1.0
 40
1.0
 40
1.0
 10
2.226565212673611
 20
1.543919542100694
 30
0.0
 10
1.232310655381944
 20
1.050581868489583
 30
0.0
 10
0.6838514539930555
 20
-0.0408243815104167
 30
0.0
 10
0.8815999348958332
 20
-1.132919650607638
 30
0.0
  0
SPLINE
  5
265
100
AcDbEntity
  8
P357_PLAN
 62
     7
100
AcDbSpline
210
0.0
220
0.0
230
-1.0
 70
     8
 71
     3
 72
    11
 73
     7
 74
     0
 42
0.0000001
 43
0.0000001
 40
0.0
 40
0.0
 40
0.0
 40
0.0
 40
1.0
 40
1.0
 40
1.0
 40
2.0
 40
2.0
 40
2.0
 40
2.0
 10
1.425925021701388
 20
-1.033700900607638
 30
0.0
 10
0.5157307942708333
 20
-0.9551527235243055
 30
0.0
 10
-0.2849093967013889
 20
-1.629013400607638
 30
0.0
 10
-0.3641465928819444
 20
-2.538518608940972
 30
0.0
 10
-0.4213351779513889
 20
-3.20480007595486
 30
0.0
 10
-0.0720024956597222
 20
-3.840075683593749
 30
0.0
 10
0.5212429470486111
 20
-4.148067220052083
 30
0.0
  0
LINE
  5
264
100
AcDbEntity
  8
P357_PLAN
 62
     7
100
AcDbLine
 10
-2.924542
 20
8.688359
 30
0.0
 11
-2.601392
 21
8.68767
 31
0.0
  0
LINE
  5
263
100
AcDbEntity
  8
P357_PLAN
 62
     7
100
AcDbLine
 10
-3.394453
 20
8.607054
 30
0.0
 11
-2.924542
 21
8.688359
 31
0.0
  0
LINE
  5
262
100
AcDbEntity
  8
P357_PLAN
 62
     7
100
AcDbLine
 10
-4.370104
 20
8.696627
 30
0.0
 11
-3.394453
 21
8.607054
 31
0.0
  0
LINE
  5
261
100
AcDbEntity
  8
P357_PLAN
 62
     7
100
AcDbLine
 10
-2.442228
 20
8.605676
 30
0.0
 11
-2.580721
 21
8.651152
 31
0.0
  0
SPLINE
  5
260
100
AcDbEntity
  8
P357_PLAN
 62
     7
100
AcDbSpline
210
0.0
220
0.0
230
-1.0
 70
     8
 71
     3
 72
     8
 73
     4
 74
     0
 42
0.0000001
 43
0.0000001
 40
0.0
 40
0.0
 40
0.0
 40
0.0
 40
1.0
 40
1.0
 40
1.0
 40
1.0
 10
1.571997070312499
 20
4.110515679253471
 30
0.0
 10
1.855872938368055
 20
2.668398708767361
 30
0.0
 10
2.272040473090277
 20
1.25453152126736
 30
0.0
 10
2.814298502604166
 20
-0.1117933485243055
 30
0.0
  0
SPLINE
  5
25F
100
AcDbEntity
  8
P357_PLAN
 62
     7
100
AcDbSpline
210
0.0
220
0.0
230
-1.0
 70
     8
 71
     3
 72
     8
 73
     4
 74
     0
 42
0.0000001
 43
0.0000001
 40
0.0
 40
0.0
 40
0.0
 40
0.0
 40
1.0
 40
1.0
 40
1.0
 40
1.0
 10
2.308558485243055
 20
5.850977918836805
 30
0.0
 10
1.91650661892361
 20
6.704672580295138
 30
0.0
 10
1.192347547743055
 20
7.360618760850694
 30
0.0
 10
0.3035129123263889
 20
7.66654324001736
 30
0.0
  0
SPLINE
  5
25E
100
AcDbEntity
  8
P357_PLAN
 62
     7
100
AcDbSpline
210
0.0
220
0.0
230
-1.0
 70
     8
 71
     3
 72
     8
 73
     4
 74
     0
 42
0.0000001
 43
0.0000001
 40
0.0
 40
0.0
 40
0.0
 40
0.0
 40
1.0
 40
1.0
 40
1.0
 40
1.0
 10
-2.495282660590277
 20
8.653907606336805
 30
0.0
 10
-1.261938476562499
 20
7.03402370876736
 30
0.0
 10
0.0974962022569445
 20
5.51473659939236
 30
0.0
 10
1.571997070312499
 20
4.110515679253471
 30
0.0
  0
LINE
  5
25D
100
AcDbEntity
  8
P357_PLAN
 62
     7
100
AcDbLine
 10
-5.624118
 20
-8.609466
 30
0.0
 11
-5.535235
 21
-8.417919
 31
0.0
  0
LINE
  5
25C
100
AcDbEntity
  8
P357_PLAN
 62
     7
100
AcDbLine
 10
-5.584844
 20
-8.768629
 30
0.0
 11
-5.624118
 21
-8.609466
 31
0.0
  0
LINE
  5
25B
100
AcDbEntity
  8
P357_PLAN
 62
     7
100
AcDbLine
 10
-5.460821
 20
-8.849934
 30
0.0
 11
-5.584844
 21
-8.768629
 31
0.0
  0
LINE
  5
25A
100
AcDbEntity
  8
P357_PLAN
 62
     7
100
AcDbLine
 10
-5.56004
 20
-8.442723
 30
0.0
 11
-4.926831
 21
-8.273914
 31
0.0
  0
LINE
  5
259
100
AcDbEntity
  8
P357_PLAN
 62
     7
100
AcDbLine
 10
-5.261694
 20
-8.840287
 30
0.0
 11
-5.460821
 21
-8.849934
 31
0.0
  0
LINE
  5
258
100
AcDbEntity
  8
P357_PLAN
 62
     7
100
AcDbLine
 10
-5.357468
 20
-8.95811
 30
0.0
 11
-5.252048
 21
-8.832019
 31
0.0
  0
LINE
  5
257
100
AcDbEntity
  8
P357_PLAN
 62
     7
100
AcDbLine
 10
-4.601614
 20
-10.07432
 30
0.0
 11
-4.342543
 21
-10.096369
 31
0.0
  0
LINE
  5
256
100
AcDbEntity
  8
P357_PLAN
 62
     7
100
AcDbLine
 10
-4.689119
 20
-9.929626
 30
0.0
 11
-4.601614
 21
-10.07432
 31
0.0
  0
SPLINE
  5
255
100
AcDbEntity
  8
P357_PLAN
 62
     7
100
AcDbSpline
210
0.0
220
0.0
230
1.0
 70
     8
 71
     3
 72
     8
 73
     4
 74
     0
 42
0.0000001
 43
0.0000001
 40
0.0
 40
0.0
 40
0.0
 40
0.0
 40
1.0
 40
1.0
 40
1.0
 40
1.0
 10
-4.342542860243055
 20
-10.09636908637152
 30
0.0
 10
-3.921552191840277
 20
-10.11152750651041
 30
0.0
 10
-3.501250542534721
 20
-10.06054009331597
 30
0.0
 10
-3.096796332465277
 20
-9.944784884982638
 30
0.0
  0
LINE
  5
254
100
AcDbEntity
  8
P357_PLAN
 62
     7
100
AcDbLine
 10
-4.650534
 20
-9.751171
 30
0.0
 11
-4.16202
 21
-9.662287
 31
0.0
  0
LINE
  5
253
100
AcDbEntity
  8
P357_PLAN
 62
     7
100
AcDbLine
 10
-5.224487
 20
-9.318467
 30
0.0
 11
-5.366425
 21
-9.190309
 31
0.0
  0
LINE
  5
252
100
AcDbEntity
  8
P357_PLAN
 62
     7
100
AcDbLine
 10
-5.015715
 20
-9.300552
 30
0.0
 11
-5.224487
 21
-9.318467
 31
0.0
  0
LINE
  5
251
100
AcDbEntity
  8
P357_PLAN
 62
     7
100
AcDbLine
 10
-5.023983
 20
-9.303997
 30
0.0
 11
-4.413512
 21
-9.195132
 31
0.0
  0
LINE
  5
250
100
AcDbEntity
  8
P357_PLAN
 62
     7
100
AcDbLine
 10
-5.123201
 20
-9.492099
 30
0.0
 11
-5.023983
 21
-9.303997
 31
0.0
  0
LINE
  5
24F
100
AcDbEntity
  8
P357_PLAN
 62
     7
100
AcDbLine
 10
-5.077726
 20
-9.656775
 30
0.0
 11
-5.123201
 21
-9.492099
 31
0.0
  0
LINE
  5
24E
100
AcDbEntity
  8
P357_PLAN
 62
     7
100
AcDbLine
 10
-4.855173
 20
-9.724299
 30
0.0
 11
-5.077726
 21
-9.656775
 31
0.0
  0
LINE
  5
24D
100
AcDbEntity
  8
P357_PLAN
 62
     7
100
AcDbLine
 10
-4.650534
 20
-9.751171
 30
0.0
 11
-4.855173
 21
-9.724299
 31
0.0
  0
LINE
  5
24C
100
AcDbEntity
  8
P357_PLAN
 62
     7
100
AcDbLine
 10
-4.689119
 20
-9.929626
 30
0.0
 11
-4.650534
 21
-9.751171
 31
0.0
  0
LINE
  5
24B
100
AcDbEntity
  8
P357_PLAN
 62
     7
100
AcDbLine
 10
-5.252048
 20
-8.832019
 30
0.0
 11
-4.582322
 21
-8.77483
 31
0.0
  0
LINE
  5
24A
100
AcDbEntity
  8
P357_PLAN
 62
     7
100
AcDbLine
 10
-5.366425
 20
-9.190309
 30
0.0
 11
-5.357468
 21
-8.95811
 31
0.0
  0
LINE
  5
249
100
AcDbEntity
  8
P357_PLAN
 62
     7
100
AcDbLine
 10
-3.975296
 20
-8.344883
 30
0.0
 11
-4.3515
 21
-7.95352
 31
0.0
  0
LINE
  5
248
100
AcDbEntity
  8
P357_PLAN
 62
     7
100
AcDbLine
 10
-3.032718
 20
-8.583972
 30
0.0
 11
-2.79914
 21
-8.806525
 31
0.0
  0
LINE
  5
247
100
AcDbEntity
  8
P357_PLAN
 62
     7
100
AcDbLine
 10
-3.315904
 20
-8.1995
 30
0.0
 11
-3.032718
 21
-8.583972
 31
0.0
  0
LINE
  5
246
100
AcDbEntity
  8
P357_PLAN
 62
     7
100
AcDbLine
 10
-2.626885
 20
-8.857513
 30
0.0
 11
-2.758488
 21
-8.794812
 31
0.0
  0
LINE
  5
245
100
AcDbEntity
  8
P357_PLAN
 62
     7
100
AcDbLine
 10
-2.626885
 20
-8.857513
 30
0.0
 11
-1.948201
 21
-8.762428
 31
0.0
  0
SPLINE
  5
244
100
AcDbEntity
  8
P357_PLAN
 62
     7
100
AcDbSpline
210
0.0
220
0.0
230
1.0
 70
     8
 71
     3
 72
    14
 73
    10
 74
     0
 42
0.0000001
 43
0.0000001
 40
0.0
 40
0.0
 40
0.0
 40
0.0
 40
1.0
 40
1.0
 40
1.0
 40
2.0
 40
2.0
 40
2.0
 40
3.0
 40
3.0
 40
3.0
 40
3.0
 10
-3.924997287326388
 20
-7.711673990885415
 30
0.0
 10
-3.991143120659721
 20
-7.590406629774304
 30
0.0
 10
-4.14272732204861
 20
-7.546309407552082
 30
0.0
 10
-4.2633056640625
 20
-7.611766221788193
 30
0.0
 10
-4.38457302517361
 20
-7.677912055121526
 30
0.0
 10
-4.428670247395833
 20
-7.829496256510416
 30
0.0
 10
-4.363213433159721
 20
-7.950763617621526
 30
0.0
 10
-4.345987955729166
 20
-7.981769476996526
 30
0.0
 10
-4.32256130642361
 20
-8.008641221788193
 30
0.0
 10
-4.2943115234375
 20
-8.030000813802082
 30
0.0
  0
LINE
  5
243
100
AcDbEntity
  8
P357_PLAN
 62
     7
100
AcDbLine
 10
-4.082094
 20
-7.589718
 30
0.0
 11
-3.315904
 21
-8.1995
 31
0.0
  0
LINE
  5
242
100
AcDbEntity
  8
P357_PLAN
 62
     7
100
AcDbLine
 10
1.16961
 20
-4.660697
 30
0.0
 11
0.292489
 21
-4.004751
 31
0.0
  0
LINE
  5
241
100
AcDbEntity
  8
P357_PLAN
 62
     7
100
AcDbLine
 10
1.454175
 20
-4.984536
 30
0.0
 11
1.519632
 21
-5.106493
 31
0.0
  0
LINE
  5
240
100
AcDbEntity
  8
P357_PLAN
 62
     7
100
AcDbLine
 10
-3.645945
 20
-8.371065
 30
0.0
 11
-4.626419
 21
-8.286316
 31
0.0
  0
LINE
  5
23F
100
AcDbEntity
  8
P357_PLAN
 62
     7
100
AcDbLine
 10
-4.926831
 20
-8.273914
 30
0.0
 11
-4.376994
 21
-8.287005
 31
0.0
  0
SPLINE
  5
23E
100
AcDbEntity
  8
P357_PLAN
 62
     7
100
AcDbSpline
210
0.0
220
0.0
230
-1.0
 70
     8
 71
     3
 72
     8
 73
     4
 74
     0
 42
0.0000001
 43
0.0000001
 40
0.0
 40
0.0
 40
0.0
 40
0.0
 40
1.0
 40
1.0
 40
1.0
 40
1.0
 10
2.243790690104166
 20
-1.058505588107638
 30
0.0
 10
2.240345594618055
 20
-1.058505588107638
 30
0.0
 10
2.236900499131944
 20
-1.059194607204861
 30
0.0
 10
2.233455403645832
 20
-1.059194607204861
 30
0.0
  0
LINE
  5
23D
100
AcDbEntity
  8
P357_PLAN
 62
     7
100
AcDbLine
 10
2.632397
 20
-1.054371
 30
0.0
 11
2.471856
 21
-0.922769
 31
0.0
  0
LINE
  5
23C
100
AcDbEntity
  8
P357_PLAN
 62
     7
100
AcDbLine
 10
2.471856
 20
-0.922769
 30
0.0
 11
2.5883
 21
-0.847666
 31
0.0
  0
LINE
  5
23B
100
AcDbEntity
  8
P357_PLAN
 62
     7
100
AcDbLine
 10
2.491838
 20
-1.02061
 30
0.0
 11
1.273652
 21
-1.028189
 31
0.0
  0
LINE
  5
23A
100
AcDbEntity
  8
P357_PLAN
 62
     7
100
AcDbLine
 10
3.510897
 20
-1.039902
 30
0.0
 11
3.585311
 21
-1.22387
 31
0.0
  0
LINE
  5
239
100
AcDbEntity
  8
P357_PLAN
 62
     7
100
AcDbLine
 10
3.585311
 20
-1.22387
 30
0.0
 11
3.437861
 21
-1.23076
 31
0.0
  0
LINE
  5
238
100
AcDbEntity
  8
P357_PLAN
 62
     7
100
AcDbLine
 10
2.5883
 20
-0.847666
 30
0.0
 11
3.510897
 21
-1.039902
 31
0.0
  0
LINE
  5
237
100
AcDbEntity
  8
P357_PLAN
 62
     7
100
AcDbLine
 10
-1.874476
 20
-10.172161
 30
0.0
 11
-2.701299
 21
-9.847633
 31
0.0
  0
LINE
  5
236
100
AcDbEntity
  8
P357_PLAN
 62
     7
100
AcDbLine
 10
-1.086928
 20
-8.803769
 30
0.0
 11
0.111966
 21
-8.66252
 31
0.0
  0
LINE
  5
235
100
AcDbEntity
  8
P357_PLAN
 62
     7
100
AcDbLine
 10
2.394686
 20
-5.391058
 30
0.0
 11
2.557294
 21
-5.327668
 31
0.0
  0
LINE
  5
234
100
AcDbEntity
  8
P357_PLAN
 62
     7
100
AcDbLine
 10
2.557294
 20
-5.327668
 30
0.0
 11
2.426381
 21
-5.174017
 31
0.0
  0
LINE
  5
233
100
AcDbEntity
  8
P357_PLAN
 62
     7
100
AcDbLine
 10
-2.701299
 20
-9.847633
 30
0.0
 11
-3.082327
 21
-9.959943
 31
0.0
  0
SPLINE
  5
232
100
AcDbEntity
  8
P357_PLAN
 62
     7
100
AcDbSpline
210
0.0
220
0.0
230
-1.0
 70
     8
 71
     3
 72
    11
 73
     7
 74
     0
 42
0.0000001
 43
0.0000001
 40
0.0
 40
0.0
 40
0.0
 40
0.0
 40
1.0
 40
1.0
 40
1.0
 40
2.0
 40
2.0
 40
2.0
 40
2.0
 10
0.1781114366319444
 20
-6.705017089843749
 30
0.0
 10
-0.4227132161458333
 20
-7.451913791232637
 30
0.0
 10
-0.3035129123263889
 20
-8.544009060329861
 30
0.0
 10
0.4426947699652778
 20
-9.144144694010416
 30
0.0
 10
0.4771457248263889
 20
-9.171705457899305
 30
0.0
 10
0.5129747178819444
 20
-9.198577202690971
 30
0.0
 10
0.5494927300347223
 20
-9.223381890190971
 30
0.0
  0
SPLINE
  5
231
100
AcDbEntity
  8
P357_PLAN
 62
     7
100
AcDbSpline
210
0.0
220
0.0
230
-1.0
 70
     8
 71
     3
 72
     8
 73
     4
 74
     0
 42
0.0000001
 43
0.0000001
 40
0.0
 40
0.0
 40
0.0
 40
0.0
 40
1.0
 40
1.0
 40
1.0
 40
1.0
 10
-0.0995632595486111
 20
-3.538285319010416
 30
0.0
 10
-0.4964382595486111
 20
-4.580082194010416
 30
0.0
 10
-0.3944634331597222
 20
-5.74728054470486
 30
0.0
 10
0.1781114366319444
 20
-6.705017089843749
 30
0.0
  0
LINE
  5
230
100
AcDbEntity
  8
P357_PLAN
 62
     7
100
AcDbLine
 10
1.680862
 20
-4.952842
 30
0.0
 11
1.454175
 21
-4.984536
 31
0.0
  0
LINE
  5
22F
100
AcDbEntity
  8
P357_PLAN
 62
     7
100
AcDbLine
 10
1.519632
 20
-5.106493
 30
0.0
 11
2.394686
 21
-5.391058
 31
0.0
  0
LINE
  5
22E
100
AcDbEntity
  8
P357_PLAN
 62
     7
100
AcDbLine
 10
-1.948201
 20
-8.762428
 30
0.0
 11
-1.086928
 21
-8.803769
 31
0.0
  0
SPLINE
  5
22D
100
AcDbEntity
  8
P357_PLAN
 62
     7
100
AcDbSpline
210
0.0
220
0.0
230
1.0
 70
     8
 71
     3
 72
     8
 73
     4
 74
     0
 42
0.0000001
 43
0.0000001
 40
0.0
 40
0.0
 40
0.0
 40
0.0
 40
1.0
 40
1.0
 40
1.0
 40
1.0
 10
5.613783094618055
 20
-0.2468410915798611
 30
0.0
 10
5.32715115017361
 20
1.26693386501736
 30
0.0
 10
4.791783311631943
 20
2.723520236545138
 30
0.0
 10
4.030417209201388
 20
4.062973361545138
 30
0.0
  0
ENDBLK
  5
286
100
AcDbEntity
  8
P357_PLAN
100
AcDbBlockEnd
  0
BLOCK
  5
2B2
100
AcDbEntity
  8
P357_PLAN
 62
     7
100
AcDbBlockBegin
  2
AI9-BLK20
 70
     0
 10
0.0
 20
0.0
 30
0.0
  3
AI9-BLK20
  1

  0
POLYLINE
  5
2CD
100
AcDbEntity
  8
P357_PLAN
 62
     7
100
AcDb2dPolyline
 66
     1
 10
0.0
 20
0.0
 30
0.0
  0
VERTEX
  5
2CE
100
AcDbEntity
  8
P357_PLAN
 62
     7
100
AcDbVertex
100
AcDb2dVertex
 10
-0.715632
 20
37.60537
 30
0.0
  0
VERTEX
  5
2CF
100
AcDbEntity
  8
P357_PLAN
 62
     7
100
AcDbVertex
100
AcDb2dVertex
 10
-0.715632
 20
-70.3951
 30
0.0
  0
VERTEX
  5
2D0
100
AcDbEntity
  8
P357_PLAN
 62
     7
100
AcDbVertex
100
AcDb2dVertex
 10
-13.13434
 20
-70.3951
 30
0.0
  0
VERTEX
  5
2D1
100
AcDbEntity
  8
P357_PLAN
 62
     7
100
AcDbVertex
100
AcDb2dVertex
 10
-13.098511
 20
37.785549
 30
0.0
  0
SEQEND
  5
2D2
100
AcDbEntity
  8
P357_PLAN
 62
     7
  0
INSERT
  5
2B4
100
AcDbEntity
  8
P357_PLAN
 62
     7
100
AcDbBlockReference
  2
AI9-BLK21
 10
3.99967
 20
51.030563
 30
0.0
  0
ENDBLK
  5
2D3
100
AcDbEntity
  8
P357_PLAN
100
AcDbBlockEnd
  0
BLOCK
  5
2B5
100
AcDbEntity
  8
P357_PLAN
 62
     7
100
AcDbBlockBegin
  2
AI9-BLK21
 70
     0
 10
0.0
 20
0.0
 30
0.0
  3
AI9-BLK21
  1

  0
INSERT
  5
2C3
100
AcDbEntity
  8
P357_PLAN
 62
     7
100
AcDbBlockReference
  2
AI9-BLK23
 10
-7.384562
 20
-17.614429
 30
0.0
  0
INSERT
  5
2B9
100
AcDbEntity
  8
P357_PLAN
 62
     7
100
AcDbBlockReference
  2
AI9-BLK22
 10
7.384562
 20
17.614429
 30
0.0
  0
LINE
  5
2B7
100
AcDbEntity
  8
P357_PLAN
 62
     7
100
AcDbLine
 10
-5.634454
 20
-19.364537
 30
0.0
 11
-9.134671
 21
-15.86432
 31
0.0
  0
LINE
  5
2B6
100
AcDbEntity
  8
P357_PLAN
 62
     7
100
AcDbLine
 10
-9.134671
 20
-19.364537
 30
0.0
 11
-5.634454
 21
-15.86432
 31
0.0
  0
ENDBLK
  5
2CC
100
AcDbEntity
  8
P357_PLAN
100
AcDbBlockEnd
  0
BLOCK
  5
2BA
100
AcDbEntity
  8
P357_PLAN
 62
     7
100
AcDbBlockBegin
  2
AI9-BLK22
 70
     0
 10
0.0
 20
0.0
 30
0.0
  3
AI9-BLK22
  1

  0
POLYLINE
  5
2BB
100
AcDbEntity
  8
P357_PLAN
 62
     7
100
AcDb2dPolyline
 66
     1
 10
0.0
 20
0.0
 30
0.0
 70
     1
  0
VERTEX
  5
2BC
100
AcDbEntity
  8
P357_PLAN
 62
     7
100
AcDbVertex
100
AcDb2dVertex
 10
-1.750109
 20
-1.750109
 30
0.0
  0
VERTEX
  5
2BD
100
AcDbEntity
  8
P357_PLAN
 62
     7
100
AcDbVertex
100
AcDb2dVertex
 10
-1.750109
 20
1.750109
 30
0.0
  0
VERTEX
  5
2BE
100
AcDbEntity
  8
P357_PLAN
 62
     7
100
AcDbVertex
100
AcDb2dVertex
 10
1.750109
 20
1.750109
 30
0.0
  0
VERTEX
  5
2BF
100
AcDbEntity
  8
P357_PLAN
 62
     7
100
AcDbVertex
100
AcDb2dVertex
 10
1.750109
 20
-1.750109
 30
0.0
  0
SEQEND
  5
2C0
100
AcDbEntity
  8
P357_PLAN
 62
     7
  0
ENDBLK
  5
2C1
100
AcDbEntity
  8
P357_PLAN
100
AcDbBlockEnd
  0
BLOCK
  5
2C4
100
AcDbEntity
  8
P357_PLAN
 62
     7
100
AcDbBlockBegin
  2
AI9-BLK23
 70
     0
 10
0.0
 20
0.0
 30
0.0
  3
AI9-BLK23
  1

  0
POLYLINE
  5
2C5
100
AcDbEntity
  8
P357_PLAN
 62
     7
100
AcDb2dPolyline
 66
     1
 10
0.0
 20
0.0
 30
0.0
 70
     1
  0
VERTEX
  5
2C6
100
AcDbEntity
  8
P357_PLAN
 62
     7
100
AcDbVertex
100
AcDb2dVertex
 10
-1.750109
 20
-1.750109
 30
0.0
  0
VERTEX
  5
2C7
100
AcDbEntity
  8
P357_PLAN
 62
     7
100
AcDbVertex
100
AcDb2dVertex
 10
-1.750109
 20
1.750109
 30
0.0
  0
VERTEX
  5
2C8
100
AcDbEntity
  8
P357_PLAN
 62
     7
100
AcDbVertex
100
AcDb2dVertex
 10
1.750109
 20
1.750109
 30
0.0
  0
VERTEX
  5
2C9
100
AcDbEntity
  8
P357_PLAN
 62
     7
100
AcDbVertex
100
AcDb2dVertex
 10
1.750109
 20
-1.750109
 30
0.0
  0
SEQEND
  5
2CA
100
AcDbEntity
  8
P357_PLAN
 62
     7
  0
ENDBLK
  5
2CB
100
AcDbEntity
  8
P357_PLAN
100
AcDbBlockEnd
  0
BLOCK
  5
2DE
100
AcDbEntity
  8
P357_PLAN
 62
     7
100
AcDbBlockBegin
  2
AI9-BLK24
 70
     0
 10
0.0
 20
0.0
 30
0.0
  3
AI9-BLK24
  1

  0
POLYLINE
  5
2DF
100
AcDbEntity
  8
P357_PLAN
 62
     7
100
AcDb2dPolyline
 66
     1
 10
0.0
 20
0.0
 30
0.0
 70
     1
  0
VERTEX
  5
2E0
100
AcDbEntity
  8
P357_PLAN
 62
     7
100
AcDbVertex
100
AcDb2dVertex
 10
-0.388779
 20
-3.963238
 30
0.0
  0
VERTEX
  5
2E1
100
AcDbEntity
  8
P357_PLAN
 62
     7
100
AcDbVertex
100
AcDb2dVertex
 10
-0.388779
 20
3.963238
 30
0.0
  0
VERTEX
  5
2E2
100
AcDbEntity
  8
P357_PLAN
 62
     7
100
AcDbVertex
100
AcDb2dVertex
 10
0.388779
 20
3.963238
 30
0.0
  0
VERTEX
  5
2E3
100
AcDbEntity
  8
P357_PLAN
 62
     7
100
AcDbVertex
100
AcDb2dVertex
 10
0.388779
 20
-3.963238
 30
0.0
  0
SEQEND
  5
2E4
100
AcDbEntity
  8
P357_PLAN
 62
     7
  0
ENDBLK
  5
2E5
100
AcDbEntity
  8
P357_PLAN
100
AcDbBlockEnd
  0
BLOCK
  5
2E8
100
AcDbEntity
  8
P357_PLAN
 62
     7
100
AcDbBlockBegin
  2
AI9-BLK25
 70
     0
 10
0.0
 20
0.0
 30
0.0
  3
AI9-BLK25
  1

  0
INSERT
  5
2F4
100
AcDbEntity
  8
P357_PLAN
 62
     7
100
AcDbBlockReference
  2
AI9-BLK27
 10
0.0
 20
1.895836
 30
0.0
  0
INSERT
  5
2EA
100
AcDbEntity
  8
P357_PLAN
 62
     7
100
AcDbBlockReference
  2
AI9-BLK26
 10
-0.000689
 20
-0.371898
 30
0.0
  0
ENDBLK
  5
2FD
100
AcDbEntity
  8
P357_PLAN
100
AcDbBlockEnd
  0
BLOCK
  5
2EB
100
AcDbEntity
  8
P357_PLAN
 62
     7
100
AcDbBlockBegin
  2
AI9-BLK26
 70
     0
 10
0.0
 20
0.0
 30
0.0
  3
AI9-BLK26
  1

  0
POLYLINE
  5
2EC
100
AcDbEntity
  8
P357_PLAN
 62
     7
100
AcDb2dPolyline
 66
     1
 10
0.0
 20
0.0
 30
0.0
 70
     1
  0
VERTEX
  5
2ED
100
AcDbEntity
  8
P357_PLAN
 62
     7
100
AcDbVertex
100
AcDb2dVertex
 10
-0.93741
 20
-1.895836
 30
0.0
  0
VERTEX
  5
2EE
100
AcDbEntity
  8
P357_PLAN
 62
     7
100
AcDbVertex
100
AcDb2dVertex
 10
-0.93741
 20
1.895836
 30
0.0
  0
VERTEX
  5
2EF
100
AcDbEntity
  8
P357_PLAN
 62
     7
100
AcDbVertex
100
AcDb2dVertex
 10
0.93741
 20
1.895836
 30
0.0
  0
VERTEX
  5
2F0
100
AcDbEntity
  8
P357_PLAN
 62
     7
100
AcDbVertex
100
AcDb2dVertex
 10
0.93741
 20
-1.895836
 30
0.0
  0
SEQEND
  5
2F1
100
AcDbEntity
  8
P357_PLAN
 62
     7
  0
ENDBLK
  5
2F2
100
AcDbEntity
  8
P357_PLAN
100
AcDbBlockEnd
  0
BLOCK
  5
2F5
100
AcDbEntity
  8
P357_PLAN
 62
     7
100
AcDbBlockBegin
  2
AI9-BLK27
 70
     0
 10
0.0
 20
0.0
 30
0.0
  3
AI9-BLK27
  1

  0
POLYLINE
  5
2F6
100
AcDbEntity
  8
P357_PLAN
 62
     7
100
AcDb2dPolyline
 66
     1
 10
0.0
 20
0.0
 30
0.0
 70
     1
  0
VERTEX
  5
2F7
100
AcDbEntity
  8
P357_PLAN
 62
     7
100
AcDbVertex
100
AcDb2dVertex
 10
-1.824867
 20
-0.371898
 30
0.0
  0
VERTEX
  5
2F8
100
AcDbEntity
  8
P357_PLAN
 62
     7
100
AcDbVertex
100
AcDb2dVertex
 10
-1.824867
 20
0.371898
 30
0.0
  0
VERTEX
  5
2F9
100
AcDbEntity
  8
P357_PLAN
 62
     7
100
AcDbVertex
100
AcDb2dVertex
 10
1.824867
 20
0.371898
 30
0.0
  0
VERTEX
  5
2FA
100
AcDbEntity
  8
P357_PLAN
 62
     7
100
AcDbVertex
100
AcDb2dVertex
 10
1.824867
 20
-0.371898
 30
0.0
  0
SEQEND
  5
2FB
100
AcDbEntity
  8
P357_PLAN
 62
     7
  0
ENDBLK
  5
2FC
100
AcDbEntity
  8
P357_PLAN
100
AcDbBlockEnd
  0
BLOCK
  5
300
100
AcDbEntity
  8
P357_PLAN
 62
     7
100
AcDbBlockBegin
  2
AI9-BLK28
 70
     0
 10
0.0
 20
0.0
 30
0.0
  3
AI9-BLK28
  1

  0
INSERT
  5
30C
100
AcDbEntity
  8
P357_PLAN
 62
     7
100
AcDbBlockReference
  2
AI9-BLK30
 10
0.0
 20
1.895836
 30
0.0
  0
INSERT
  5
302
100
AcDbEntity
  8
P357_PLAN
 62
     7
100
AcDbBlockReference
  2
AI9-BLK29
 10
-0.000689
 20
-0.371898
 30
0.0
  0
ENDBLK
  5
315
100
AcDbEntity
  8
P357_PLAN
100
AcDbBlockEnd
  0
BLOCK
  5
303
100
AcDbEntity
  8
P357_PLAN
 62
     7
100
AcDbBlockBegin
  2
AI9-BLK29
 70
     0
 10
0.0
 20
0.0
 30
0.0
  3
AI9-BLK29
  1

  0
POLYLINE
  5
304
100
AcDbEntity
  8
P357_PLAN
 62
     7
100
AcDb2dPolyline
 66
     1
 10
0.0
 20
0.0
 30
0.0
 70
     1
  0
VERTEX
  5
305
100
AcDbEntity
  8
P357_PLAN
 62
     7
100
AcDbVertex
100
AcDb2dVertex
 10
-0.93741
 20
-1.895836
 30
0.0
  0
VERTEX
  5
306
100
AcDbEntity
  8
P357_PLAN
 62
     7
100
AcDbVertex
100
AcDb2dVertex
 10
-0.93741
 20
1.895836
 30
0.0
  0
VERTEX
  5
307
100
AcDbEntity
  8
P357_PLAN
 62
     7
100
AcDbVertex
100
AcDb2dVertex
 10
0.93741
 20
1.895836
 30
0.0
  0
VERTEX
  5
308
100
AcDbEntity
  8
P357_PLAN
 62
     7
100
AcDbVertex
100
AcDb2dVertex
 10
0.93741
 20
-1.895836
 30
0.0
  0
SEQEND
  5
309
100
AcDbEntity
  8
P357_PLAN
 62
     7
  0
ENDBLK
  5
30A
100
AcDbEntity
  8
P357_PLAN
100
AcDbBlockEnd
  0
BLOCK
  5
30D
100
AcDbEntity
  8
P357_PLAN
 62
     7
100
AcDbBlockBegin
  2
AI9-BLK30
 70
     0
 10
0.0
 20
0.0
 30
0.0
  3
AI9-BLK30
  1

  0
POLYLINE
  5
30E
100
AcDbEntity
  8
P357_PLAN
 62
     7
100
AcDb2dPolyline
 66
     1
 10
0.0
 20
0.0
 30
0.0
 70
     1
  0
VERTEX
  5
30F
100
AcDbEntity
  8
P357_PLAN
 62
     7
100
AcDbVertex
100
AcDb2dVertex
 10
-1.824867
 20
-0.371898
 30
0.0
  0
VERTEX
  5
310
100
AcDbEntity
  8
P357_PLAN
 62
     7
100
AcDbVertex
100
AcDb2dVertex
 10
-1.824867
 20
0.371898
 30
0.0
  0
VERTEX
  5
311
100
AcDbEntity
  8
P357_PLAN
 62
     7
100
AcDbVertex
100
AcDb2dVertex
 10
1.824867
 20
0.371898
 30
0.0
  0
VERTEX
  5
312
100
AcDbEntity
  8
P357_PLAN
 62
     7
100
AcDbVertex
100
AcDb2dVertex
 10
1.824867
 20
-0.371898
 30
0.0
  0
SEQEND
  5
313
100
AcDbEntity
  8
P357_PLAN
 62
     7
  0
ENDBLK
  5
314
100
AcDbEntity
  8
P357_PLAN
100
AcDbBlockEnd
  0
BLOCK
  5
324
100
AcDbEntity
  8
P357_PLAN
 62
     7
100
AcDbBlockBegin
  2
AI9-BLK31
 70
     0
 10
0.0
 20
0.0
 30
0.0
  3
AI9-BLK31
  1

  0
CIRCLE
  5
326
100
AcDbEntity
  8
P357_PLAN
  6
AI9-LTYPE3
 62
     7
100
AcDbCircle
 10
-0.000086
 20
0.0
 30
0.0
 40
12.624897
  0
ENDBLK
  5
327
100
AcDbEntity
  8
P357_PLAN
100
AcDbBlockEnd
  0
BLOCK
  5
396
100
AcDbEntity
  8
SPECIFICATIONS
 62
     7
100
AcDbBlockBegin
  2
AI9-BLK32
 70
     0
 10
0.0
 20
0.0
 30
0.0
  3
AI9-BLK32
  1

  0
INSERT
  5
3BA
100
AcDbEntity
  8
SPECIFICATIONS
 62
     7
100
AcDbBlockReference
  2
AI9-BLK36
 10
0.011713
 20
-3.7946
 30
0.0
  0
MTEXT
  5
3B8
100
AcDbEntity
  8
SPECIFICATIONS
 62
     7
100
AcDbMText
 10
-9.037174
 20
3.036589
 30
0.0
 40
2.099868
 41
0.0
 71
     1
 72
     2
  1
\fArial|b0|i0;12"
  7
STD
 11
1.000001
 21
0.0
 31
0.0
  0
MTEXT
  5
3B7
100
AcDbEntity
  8
SPECIFICATIONS
 62
     7
100
AcDbMText
 10
-1.893424
 20
3.036589
 30
0.0
 40
2.099868
 41
0.0
 71
     1
 72
     2
  1
\fArial|b0|i0;12"
  7
STD
 11
1.000001
 21
0.0
 31
0.0
  0
MTEXT
  5
3B6
100
AcDbEntity
  8
SPECIFICATIONS
 62
     7
100
AcDbMText
 10
6.044076
 20
3.036589
 30
0.0
 40
2.099868
 41
0.0
 71
     1
 72
     2
  1
\fArial|b0|i0;12"
  7
STD
 11
1.000001
 21
0.0
 31
0.0
  0
MTEXT
  5
3B5
100
AcDbEntity
  8
SPECIFICATIONS
 62
     7
100
AcDbMText
 10
-3.376883
 20
-2.519661
 30
0.0
 40
2.099868
 41
0.0
 71
     1
 72
     2
  1
\fArial|b0|i0;Scale
  7
STD
 11
1.000001
 21
0.0
 31
0.0
  0
INSERT
  5
3AC
100
AcDbEntity
  8
SPECIFICATIONS
 62
     7
100
AcDbBlockReference
  2
AI9-BLK35
 10
-7.631834
 20
1.88929
 30
0.0
  0
INSERT
  5
3A2
100
AcDbEntity
  8
SPECIFICATIONS
 62
     7
100
AcDbBlockReference
  2
AI9-BLK34
 10
-0.011799
 20
1.88929
 30
0.0
  0
INSERT
  5
398
100
AcDbEntity
  8
SPECIFICATIONS
 62
     7
100
AcDbBlockReference
  2
AI9-BLK33
 10
7.608235
 20
1.88929
 30
0.0
  0
ENDBLK
  5
3C3
100
AcDbEntity
  8
SPECIFICATIONS
100
AcDbBlockEnd
  0
BLOCK
  5
399
100
AcDbEntity
  8
SPECIFICATIONS
 62
     7
100
AcDbBlockBegin
  2
AI9-BLK33
 70
     0
 10
0.0
 20
0.0
 30
0.0
  3
AI9-BLK33
  1

  0
POLYLINE
  5
39A
100
AcDbEntity
  8
SPECIFICATIONS
 62
     7
100
AcDb2dPolyline
 66
     1
 10
0.0
 20
0.0
 30
0.0
 70
     1
  0
VERTEX
  5
39B
100
AcDbEntity
  8
SPECIFICATIONS
 62
     7
100
AcDbVertex
100
AcDb2dVertex
 10
-3.810017
 20
3.809931
 30
0.0
  0
VERTEX
  5
39C
100
AcDbEntity
  8
SPECIFICATIONS
 62
     7
100
AcDbVertex
100
AcDb2dVertex
 10
3.810017
 20
3.809931
 30
0.0
  0
VERTEX
  5
39D
100
AcDbEntity
  8
SPECIFICATIONS
 62
     7
100
AcDbVertex
100
AcDb2dVertex
 10
3.810017
 20
-3.809931
 30
0.0
  0
VERTEX
  5
39E
100
AcDbEntity
  8
SPECIFICATIONS
 62
     7
100
AcDbVertex
100
AcDb2dVertex
 10
-3.810017
 20
-3.809931
 30
0.0
  0
SEQEND
  5
39F
100
AcDbEntity
  8
SPECIFICATIONS
 62
     7
  0
ENDBLK
  5
3A0
100
AcDbEntity
  8
SPECIFICATIONS
100
AcDbBlockEnd
  0
BLOCK
  5
3A3
100
AcDbEntity
  8
SPECIFICATIONS
 62
     7
100
AcDbBlockBegin
  2
AI9-BLK34
 70
     0
 10
0.0
 20
0.0
 30
0.0
  3
AI9-BLK34
  1

  0
POLYLINE
  5
3A4
100
AcDbEntity
  8
SPECIFICATIONS
 62
     7
100
AcDb2dPolyline
 66
     1
 10
0.0
 20
0.0
 30
0.0
 70
     1
  0
VERTEX
  5
3A5
100
AcDbEntity
  8
SPECIFICATIONS
 62
     7
100
AcDbVertex
100
AcDb2dVertex
 10
-3.810017
 20
3.809931
 30
0.0
  0
VERTEX
  5
3A6
100
AcDbEntity
  8
SPECIFICATIONS
 62
     7
100
AcDbVertex
100
AcDb2dVertex
 10
3.810017
 20
3.809931
 30
0.0
  0
VERTEX
  5
3A7
100
AcDbEntity
  8
SPECIFICATIONS
 62
     7
100
AcDbVertex
100
AcDb2dVertex
 10
3.810017
 20
-3.809931
 30
0.0
  0
VERTEX
  5
3A8
100
AcDbEntity
  8
SPECIFICATIONS
 62
     7
100
AcDbVertex
100
AcDb2dVertex
 10
-3.810017
 20
-3.809931
 30
0.0
  0
SEQEND
  5
3A9
100
AcDbEntity
  8
SPECIFICATIONS
 62
     7
  0
ENDBLK
  5
3AA
100
AcDbEntity
  8
SPECIFICATIONS
100
AcDbBlockEnd
  0
BLOCK
  5
3AD
100
AcDbEntity
  8
SPECIFICATIONS
 62
     7
100
AcDbBlockBegin
  2
AI9-BLK35
 70
     0
 10
0.0
 20
0.0
 30
0.0
  3
AI9-BLK35
  1

  0
POLYLINE
  5
3AE
100
AcDbEntity
  8
SPECIFICATIONS
 62
     7
100
AcDb2dPolyline
 66
     1
 10
0.0
 20
0.0
 30
0.0
 70
     1
  0
VERTEX
  5
3AF
100
AcDbEntity
  8
SPECIFICATIONS
 62
     7
100
AcDbVertex
100
AcDb2dVertex
 10
-3.810017
 20
3.809931
 30
0.0
  0
VERTEX
  5
3B0
100
AcDbEntity
  8
SPECIFICATIONS
 62
     7
100
AcDbVertex
100
AcDb2dVertex
 10
3.810017
 20
3.809931
 30
0.0
  0
VERTEX
  5
3B1
100
AcDbEntity
  8
SPECIFICATIONS
 62
     7
100
AcDbVertex
100
AcDb2dVertex
 10
3.810017
 20
-3.809931
 30
0.0
  0
VERTEX
  5
3B2
100
AcDbEntity
  8
SPECIFICATIONS
 62
     7
100
AcDbVertex
100
AcDb2dVertex
 10
-3.810017
 20
-3.809931
 30
0.0
  0
SEQEND
  5
3B3
100
AcDbEntity
  8
SPECIFICATIONS
 62
     7
  0
ENDBLK
  5
3B4
100
AcDbEntity
  8
SPECIFICATIONS
100
AcDbBlockEnd
  0
BLOCK
  5
3BB
100
AcDbEntity
  8
SPECIFICATIONS
 62
     7
100
AcDbBlockBegin
  2
AI9-BLK36
 70
     0
 10
0.0
 20
0.0
 30
0.0
  3
AI9-BLK36
  1

  0
POLYLINE
  5
3BC
100
AcDbEntity
  8
SPECIFICATIONS
 62
     7
100
AcDb2dPolyline
 66
     1
 10
0.0
 20
0.0
 30
0.0
 70
     1
  0
VERTEX
  5
3BD
100
AcDbEntity
  8
SPECIFICATIONS
 62
     7
100
AcDbVertex
100
AcDb2dVertex
 10
-11.430138
 20
1.904621
 30
0.0
  0
VERTEX
  5
3BE
100
AcDbEntity
  8
SPECIFICATIONS
 62
     7
100
AcDbVertex
100
AcDb2dVertex
 10
11.430138
 20
1.904621
 30
0.0
  0
VERTEX
  5
3BF
100
AcDbEntity
  8
SPECIFICATIONS
 62
     7
100
AcDbVertex
100
AcDb2dVertex
 10
11.430138
 20
-1.904621
 30
0.0
  0
VERTEX
  5
3C0
100
AcDbEntity
  8
SPECIFICATIONS
 62
     7
100
AcDbVertex
100
AcDb2dVertex
 10
-11.430138
 20
-1.904621
 30
0.0
  0
SEQEND
  5
3C1
100
AcDbEntity
  8
SPECIFICATIONS
 62
     7
  0
ENDBLK
  5
3C2
100
AcDbEntity
  8
SPECIFICATIONS
100
AcDbBlockEnd
  0
BLOCK
  5
3C6
100
AcDbEntity
  8
SPECIFICATIONS
 62
     7
100
AcDbBlockBegin
  2
AI9-BLK37
 70
     0
 10
0.0
 20
0.0
 30
0.0
  3
AI9-BLK37
  1

  0
POLYLINE
  5
3C8
100
AcDbEntity
  8
SPECIFICATIONS
 62
     7
100
AcDb2dPolyline
 66
     1
 10
0.0
 20
0.0
 30
0.0
 70
     1
  0
VERTEX
  5
3C9
100
AcDbEntity
  8
SPECIFICATIONS
 62
     7
100
AcDbVertex
100
AcDb2dVertex
 10
-1.5875
 20
-2.749703
 30
0.0
  0
VERTEX
  5
3CA
100
AcDbEntity
  8
SPECIFICATIONS
 62
     7
100
AcDbVertex
100
AcDb2dVertex
 10
-3.175
 20
0.000172
 30
0.0
  0
VERTEX
  5
3CB
100
AcDbEntity
  8
SPECIFICATIONS
 62
     7
100
AcDbVertex
100
AcDb2dVertex
 10
-1.5875
 20
2.749703
 30
0.0
  0
VERTEX
  5
3CC
100
AcDbEntity
  8
SPECIFICATIONS
 62
     7
100
AcDbVertex
100
AcDb2dVertex
 10
1.5875
 20
2.749703
 30
0.0
  0
VERTEX
  5
3CD
100
AcDbEntity
  8
SPECIFICATIONS
 62
     7
100
AcDbVertex
100
AcDb2dVertex
 10
3.175
 20
0.000172
 30
0.0
  0
VERTEX
  5
3CE
100
AcDbEntity
  8
SPECIFICATIONS
 62
     7
100
AcDbVertex
100
AcDb2dVertex
 10
1.5875
 20
-2.749703
 30
0.0
  0
SEQEND
  5
3CF
100
AcDbEntity
  8
SPECIFICATIONS
 62
     7
  0
MTEXT
  5
3C7
100
AcDbEntity
  8
SPECIFICATIONS
 62
     7
100
AcDbMText
 10
-2.157491
 20
1.462632
 30
0.0
 40
2.624835
 41
0.0
 71
     1
 72
     2
  1
\fArial|b0|i0;A1
  7
STD
 11
1.000001
 21
0.0
 31
0.0
  0
ENDBLK
  5
3D0
100
AcDbEntity
  8
SPECIFICATIONS
100
AcDbBlockEnd
  0
BLOCK
  5
3D3
100
AcDbEntity
  8
SPECIFICATIONS
 62
     7
100
AcDbBlockBegin
  2
AI9-BLK38
 70
     0
 10
0.0
 20
0.0
 30
0.0
  3
AI9-BLK38
  1

  0
POLYLINE
  5
3D5
100
AcDbEntity
  8
SPECIFICATIONS
 62
     7
100
AcDb2dPolyline
 66
     1
 10
0.0
 20
0.0
 30
0.0
 70
     1
  0
VERTEX
  5
3D6
100
AcDbEntity
  8
SPECIFICATIONS
 62
     7
100
AcDbVertex
100
AcDb2dVertex
 10
-1.5875
 20
-2.749703
 30
0.0
  0
VERTEX
  5
3D7
100
AcDbEntity
  8
SPECIFICATIONS
 62
     7
100
AcDbVertex
100
AcDb2dVertex
 10
-3.175
 20
0.000172
 30
0.0
  0
VERTEX
  5
3D8
100
AcDbEntity
  8
SPECIFICATIONS
 62
     7
100
AcDbVertex
100
AcDb2dVertex
 10
-1.5875
 20
2.749703
 30
0.0
  0
VERTEX
  5
3D9
100
AcDbEntity
  8
SPECIFICATIONS
 62
     7
100
AcDbVertex
100
AcDb2dVertex
 10
1.5875
 20
2.749703
 30
0.0
  0
VERTEX
  5
3DA
100
AcDbEntity
  8
SPECIFICATIONS
 62
     7
100
AcDbVertex
100
AcDb2dVertex
 10
3.175
 20
0.000172
 30
0.0
  0
VERTEX
  5
3DB
100
AcDbEntity
  8
SPECIFICATIONS
 62
     7
100
AcDbVertex
100
AcDb2dVertex
 10
1.5875
 20
-2.749703
 30
0.0
  0
SEQEND
  5
3DC
100
AcDbEntity
  8
SPECIFICATIONS
 62
     7
  0
MTEXT
  5
3D4
100
AcDbEntity
  8
SPECIFICATIONS
 62
     7
100
AcDbMText
 10
-2.157491
 20
1.462632
 30
0.0
 40
2.624835
 41
0.0
 71
     1
 72
     2
  1
\fArial|b0|i0;A1
  7
STD
 11
1.000001
 21
0.0
 31
0.0
  0
ENDBLK
  5
3DD
100
AcDbEntity
  8
SPECIFICATIONS
100
AcDbBlockEnd
  0
BLOCK
  5
3E0
100
AcDbEntity
  8
SPECIFICATIONS
 62
     7
100
AcDbBlockBegin
  2
AI9-BLK39
 70
     0
 10
0.0
 20
0.0
 30
0.0
  3
AI9-BLK39
  1

  0
POLYLINE
  5
3E2
100
AcDbEntity
  8
SPECIFICATIONS
 62
     7
100
AcDb2dPolyline
 66
     1
 10
0.0
 20
0.0
 30
0.0
 70
     1
  0
VERTEX
  5
3E3
100
AcDbEntity
  8
SPECIFICATIONS
 62
     7
100
AcDbVertex
100
AcDb2dVertex
 10
-1.5875
 20
-2.749703
 30
0.0
  0
VERTEX
  5
3E4
100
AcDbEntity
  8
SPECIFICATIONS
 62
     7
100
AcDbVertex
100
AcDb2dVertex
 10
-3.175
 20
0.0
 30
0.0
  0
VERTEX
  5
3E5
100
AcDbEntity
  8
SPECIFICATIONS
 62
     7
100
AcDbVertex
100
AcDb2dVertex
 10
-1.5875
 20
2.749703
 30
0.0
  0
VERTEX
  5
3E6
100
AcDbEntity
  8
SPECIFICATIONS
 62
     7
100
AcDbVertex
100
AcDb2dVertex
 10
1.5875
 20
2.749703
 30
0.0
  0
VERTEX
  5
3E7
100
AcDbEntity
  8
SPECIFICATIONS
 62
     7
100
AcDbVertex
100
AcDb2dVertex
 10
3.175
 20
0.0
 30
0.0
  0
VERTEX
  5
3E8
100
AcDbEntity
  8
SPECIFICATIONS
 62
     7
100
AcDbVertex
100
AcDb2dVertex
 10
1.5875
 20
-2.749703
 30
0.0
  0
SEQEND
  5
3E9
100
AcDbEntity
  8
SPECIFICATIONS
 62
     7
  0
MTEXT
  5
3E1
100
AcDbEntity
  8
SPECIFICATIONS
 62
     7
100
AcDbMText
 10
-2.157319
 20
1.405788
 30
0.0
 40
2.624835
 41
0.0
 71
     1
 72
     2
  1
\fArial|b0|i0;E1
  7
STD
 11
1.000001
 21
0.0
 31
0.0
  0
ENDBLK
  5
3EA
100
AcDbEntity
  8
SPECIFICATIONS
100
AcDbBlockEnd
  0
BLOCK
  5
3ED
100
AcDbEntity
  8
SPECIFICATIONS
 62
     7
100
AcDbBlockBegin
  2
AI9-BLK40
 70
     0
 10
0.0
 20
0.0
 30
0.0
  3
AI9-BLK40
  1

  0
POLYLINE
  5
3EF
100
AcDbEntity
  8
SPECIFICATIONS
 62
     7
100
AcDb2dPolyline
 66
     1
 10
0.0
 20
0.0
 30
0.0
 70
     1
  0
VERTEX
  5
3F0
100
AcDbEntity
  8
SPECIFICATIONS
 62
     7
100
AcDbVertex
100
AcDb2dVertex
 10
-1.5875
 20
-2.749703
 30
0.0
  0
VERTEX
  5
3F1
100
AcDbEntity
  8
SPECIFICATIONS
 62
     7
100
AcDbVertex
100
AcDb2dVertex
 10
-3.175
 20
0.0
 30
0.0
  0
VERTEX
  5
3F2
100
AcDbEntity
  8
SPECIFICATIONS
 62
     7
100
AcDbVertex
100
AcDb2dVertex
 10
-1.5875
 20
2.749703
 30
0.0
  0
VERTEX
  5
3F3
100
AcDbEntity
  8
SPECIFICATIONS
 62
     7
100
AcDbVertex
100
AcDb2dVertex
 10
1.5875
 20
2.749703
 30
0.0
  0
VERTEX
  5
3F4
100
AcDbEntity
  8
SPECIFICATIONS
 62
     7
100
AcDbVertex
100
AcDb2dVertex
 10
3.175
 20
0.0
 30
0.0
  0
VERTEX
  5
3F5
100
AcDbEntity
  8
SPECIFICATIONS
 62
     7
100
AcDbVertex
100
AcDb2dVertex
 10
1.5875
 20
-2.749703
 30
0.0
  0
SEQEND
  5
3F6
100
AcDbEntity
  8
SPECIFICATIONS
 62
     7
  0
MTEXT
  5
3EE
100
AcDbEntity
  8
SPECIFICATIONS
 62
     7
100
AcDbMText
 10
-2.157491
 20
1.405788
 30
0.0
 40
2.624835
 41
0.0
 71
     1
 72
     2
  1
\fArial|b0|i0;E1
  7
STD
 11
1.000001
 21
0.0
 31
0.0
  0
ENDBLK
  5
3F7
100
AcDbEntity
  8
SPECIFICATIONS
100
AcDbBlockEnd
  0
BLOCK
  5
401
100
AcDbEntity
  8
SPECIFICATIONS
 62
     7
100
AcDbBlockBegin
  2
AI9-BLK41
 70
     0
 10
0.0
 20
0.0
 30
0.0
  3
AI9-BLK41
  1

  0
SPLINE
  5
45A
100
AcDbEntity
  8
SPECIFICATIONS
 62
     7
100
AcDbSpline
210
0.0
220
0.0
230
-1.0
 70
     8
 71
     3
 72
     8
 73
     4
 74
     0
 42
0.0000001
 43
0.0000001
 40
0.0
 40
0.0
 40
0.0
 40
0.0
 40
1.0
 40
1.0
 40
1.0
 40
1.0
 10
-10.17362535264757
 20
1.874562581380208
 30
0.0
 10
-10.45819023980034
 20
0.8300096299913192
 30
0.0
 10
-10.67109714084201
 20
-0.2324578179253472
 30
0.0
 10
-10.8102789984809
 20
-1.305260552300347
 30
0.0
  0
SPLINE
  5
459
100
AcDbEntity
  8
SPECIFICATIONS
 62
     7
100
AcDbSpline
210
0.0
220
0.0
230
1.0
 70
     8
 71
     3
 72
    11
 73
     7
 74
     0
 42
0.0000001
 43
0.0000001
 40
0.0
 40
0.0
 40
0.0
 40
0.0
 40
1.0
 40
1.0
 40
1.0
 40
2.0
 40
2.0
 40
2.0
 40
2.0
 10
-10.8102789984809
 20
-1.305260552300347
 30
0.0
 10
-11.04316745334201
 20
-1.992901611328124
 30
0.0
 10
-10.67454223632812
 20
-2.739109293619791
 30
0.0
 10
-9.986901177300346
 20
-2.971997748480902
 30
0.0
 10
-9.488051350911456
 20
-3.141496446397569
 30
0.0
 10
-8.936147054036457
 20
-2.99611341688368
 30
0.0
 10
-8.584747314453125
 20
-2.603372531467013
 30
0.0
  0
SPLINE
  5
458
100
AcDbEntity
  8
SPECIFICATIONS
 62
     7
100
AcDbSpline
210
0.0
220
0.0
230
1.0
 70
     8
 71
     3
 72
     8
 73
     4
 74
     0
 42
0.0000001
 43
0.0000001
 40
0.0
 40
0.0
 40
0.0
 40
0.0
 40
1.0
 40
1.0
 40
1.0
 40
1.0
 10
4.061853705512151
 20
-4.030331081814235
 30
0.0
 10
4.989962429470486
 20
-3.707870144314235
 30
0.0
 10
5.673124864366318
 20
-2.912053087022569
 30
0.0
 10
5.852958848741319
 20
-1.946048312717013
 30
0.0
  0
SPLINE
  5
457
100
AcDbEntity
  8
SPECIFICATIONS
 62
     7
100
AcDbSpline
210
0.0
220
0.0
230
1.0
 70
     8
 71
     3
 72
     8
 73
     4
 74
     0
 42
0.0000001
 43
0.0000001
 40
0.0
 40
0.0
 40
0.0
 40
0.0
 40
1.0
 40
1.0
 40
1.0
 40
1.0
 10
-8.500686984592013
 20
-2.624732123480902
 30
0.0
 10
-6.251728651258679
 20
-4.669740804036457
 30
0.0
 10
-3.285156928168402
 20
-5.744610595703124
 30
0.0
 10
-0.2479607476128472
 20
-5.613696967230902
 30
0.0
  0
SPLINE
  5
456
100
AcDbEntity
  8
SPECIFICATIONS
 62
     7
100
AcDbSpline
210
0.0
220
0.0
230
1.0
 70
     8
 71
     3
 72
    14
 73
    10
 74
     0
 42
0.0000001
 43
0.0000001
 40
0.0
 40
0.0
 40
0.0
 40
0.0
 40
1.0
 40
1.0
 40
1.0
 40
2.0
 40
2.0
 40
2.0
 40
3.0
 40
3.0
 40
3.0
 40
3.0
 10
-4.626332600911458
 20
-1.161944580078124
 30
0.0
 10
-5.359448920355902
 20
-2.015639241536458
 30
0.0
 10
-5.261608208550346
 20
-3.301348876953124
 30
0.0
 10
-4.407913547092013
 20
-4.034465196397569
 30
0.0
 10
-3.554563395182291
 20
-4.766892496744791
 30
0.0
 10
-2.268853759765624
 20
-4.669051784939235
 30
0.0
 10
-1.53573744032118
 20
-3.815357123480902
 30
0.0
 10
-1.226367865668402
 20
-3.45500013563368
 30
0.0
 10
-1.052735053168402
 20
-2.996802435980902
 30
0.0
 10
-1.044466824001736
 20
-2.521379258897569
 30
0.0
  0
SPLINE
  5
455
100
AcDbEntity
  8
SPECIFICATIONS
 62
     7
100
AcDbSpline
210
0.0
220
0.0
230
-1.0
 70
     8
 71
     3
 72
    14
 73
    10
 74
     0
 42
0.0000001
 43
0.0000001
 40
0.0
 40
0.0
 40
0.0
 40
0.0
 40
1.0
 40
1.0
 40
1.0
 40
2.0
 40
2.0
 40
2.0
 40
3.0
 40
3.0
 40
3.0
 40
3.0
 10
9.160250515407986
 20
4.218605550130208
 30
0.0
 10
9.176097954644095
 20
4.355031331380208
 30
0.0
 10
9.078257242838541
 20
4.479054768880208
 30
0.0
 10
8.94183146158854
 20
4.495591227213541
 30
0.0
 10
8.804716661241318
 20
4.511438666449651
 30
0.0
 10
8.680693223741318
 20
4.414286973741319
 30
0.0
 10
8.664845784505207
 20
4.277172173394096
 30
0.0
 10
8.660711669921873
 20
4.242032199435763
 30
0.0
 10
8.663467746310763
 20
4.206203206380208
 30
0.0
 10
8.674492051866318
 20
4.172441270616318
 30
0.0
  0
LINE
  5
454
100
AcDbEntity
  8
SPECIFICATIONS
 62
     7
100
AcDbLine
 10
8.957679
 20
3.515117
 30
0.0
 11
9.57504
 21
4.281306
 31
0.0
  0
SPLINE
  5
453
100
AcDbEntity
  8
SPECIFICATIONS
 62
     7
100
AcDbSpline
210
0.0
220
0.0
230
-1.0
 70
     8
 71
     3
 72
     8
 73
     4
 74
     0
 42
0.0000001
 43
0.0000001
 40
0.0
 40
0.0
 40
0.0
 40
0.0
 40
1.0
 40
1.0
 40
1.0
 40
1.0
 10
9.933329942491319
 20
2.239742702907985
 30
0.0
 10
9.065165879991319
 20
1.498358154296874
 30
0.0
 10
8.302421739366318
 20
0.642596435546875
 30
0.0
 10
7.665079074435762
 20
-0.3034267849392361
 30
0.0
  0
LINE
  5
452
100
AcDbEntity
  8
SPECIFICATIONS
 62
     7
100
AcDbLine
 10
10.498326
 20
4.7774
 30
0.0
 11
10.29851
 21
4.845613
 31
0.0
  0
LINE
  5
451
100
AcDbEntity
  8
SPECIFICATIONS
 62
     7
100
AcDbLine
 10
10.58652
 20
4.639596
 30
0.0
 11
10.498326
 21
4.7774
 31
0.0
  0
LINE
  5
450
100
AcDbEntity
  8
SPECIFICATIONS
 62
     7
100
AcDbLine
 10
10.558959
 20
4.493524
 30
0.0
 11
10.58652
 21
4.639596
 31
0.0
  0
LINE
  5
44F
100
AcDbEntity
  8
SPECIFICATIONS
 62
     7
100
AcDbLine
 10
10.414265
 20
4.356409
 30
0.0
 11
10.558959
 21
4.493524
 31
0.0
  0
LINE
  5
44E
100
AcDbEntity
  8
SPECIFICATIONS
 62
     7
100
AcDbLine
 10
10.565849
 20
4.344007
 30
0.0
 11
10.401863
 21
4.35572
 31
0.0
  0
LINE
  5
44D
100
AcDbEntity
  8
SPECIFICATIONS
 62
     7
100
AcDbLine
 10
9.167141
 20
3.770743
 30
0.0
 11
9.144403
 21
4.312312
 31
0.0
  0
LINE
  5
44C
100
AcDbEntity
  8
SPECIFICATIONS
 62
     7
100
AcDbLine
 10
9.773478
 20
4.506616
 30
0.0
 11
9.402785
 21
4.100094
 31
0.0
  0
LINE
  5
44B
100
AcDbEntity
  8
SPECIFICATIONS
 62
     7
100
AcDbLine
 10
10.33365
 20
4.84768
 30
0.0
 11
9.773478
 21
4.506616
 31
0.0
  0
LINE
  5
44A
100
AcDbEntity
  8
SPECIFICATIONS
 62
     7
100
AcDbLine
 10
10.401863
 20
4.35572
 30
0.0
 11
9.896812
 21
3.911303
 31
0.0
  0
LINE
  5
449
100
AcDbEntity
  8
SPECIFICATIONS
 62
     7
100
AcDbLine
 10
10.73397
 20
3.998808
 30
0.0
 11
10.739482
 21
4.189667
 31
0.0
  0
LINE
  5
448
100
AcDbEntity
  8
SPECIFICATIONS
 62
     7
100
AcDbLine
 10
10.848347
 20
3.025913
 30
0.0
 11
10.68505
 21
2.824031
 31
0.0
  0
LINE
  5
447
100
AcDbEntity
  8
SPECIFICATIONS
 62
     7
100
AcDbLine
 10
10.804939
 20
3.189211
 30
0.0
 11
10.848347
 21
3.025913
 31
0.0
  0
SPLINE
  5
446
100
AcDbEntity
  8
SPECIFICATIONS
 62
     7
100
AcDbSpline
210
0.0
220
0.0
230
1.0
 70
     8
 71
     3
 72
     8
 73
     4
 74
     0
 42
0.0000001
 43
0.0000001
 40
0.0
 40
0.0
 40
0.0
 40
0.0
 40
1.0
 40
1.0
 40
1.0
 40
1.0
 10
9.714221869574652
 20
2.029591878255208
 30
0.0
 10
10.07802395290798
 20
2.24112074110243
 30
0.0
 10
10.40530802408854
 20
2.509149169921874
 30
0.0
 10
10.68504977756076
 20
2.82403089735243
 30
0.0
  0
LINE
  5
445
100
AcDbEntity
  8
SPECIFICATIONS
 62
     7
100
AcDbLine
 10
10.649221
 20
3.284985
 30
0.0
 11
10.246834
 21
2.99353
 31
0.0
  0
LINE
  5
444
100
AcDbEntity
  8
SPECIFICATIONS
 62
     7
100
AcDbLine
 10
10.584453
 20
3.86445
 30
0.0
 11
10.083536
 21
3.498581
 31
0.0
  0
LINE
  5
443
100
AcDbEntity
  8
SPECIFICATIONS
 62
     7
100
AcDbLine
 10
10.789092
 20
3.805194
 30
0.0
 11
10.584453
 21
3.86445
 31
0.0
  0
LINE
  5
442
100
AcDbEntity
  8
SPECIFICATIONS
 62
     7
100
AcDbLine
 10
10.876597
 20
3.659122
 30
0.0
 11
10.789092
 21
3.805194
 31
0.0
  0
LINE
  5
441
100
AcDbEntity
  8
SPECIFICATIONS
 62
     7
100
AcDbLine
 10
10.771177
 20
3.451038
 30
0.0
 11
10.876597
 21
3.659122
 31
0.0
  0
LINE
  5
440
100
AcDbEntity
  8
SPECIFICATIONS
 62
     7
100
AcDbLine
 10
10.649221
 20
3.284985
 30
0.0
 11
10.771177
 21
3.451038
 31
0.0
  0
LINE
  5
43F
100
AcDbEntity
  8
SPECIFICATIONS
 62
     7
100
AcDbLine
 10
10.804939
 20
3.189211
 30
0.0
 11
10.649221
 21
3.284985
 31
0.0
  0
LINE
  5
43E
100
AcDbEntity
  8
SPECIFICATIONS
 62
     7
100
AcDbLine
 10
9.370401
 20
1.810484
 30
0.0
 11
9.7156
 21
2.008232
 31
0.0
  0
LINE
  5
43D
100
AcDbEntity
  8
SPECIFICATIONS
 62
     7
100
AcDbLine
 10
10.576874
 20
3.860316
 30
0.0
 11
10.73397
 21
3.998808
 31
0.0
  0
LINE
  5
43C
100
AcDbEntity
  8
SPECIFICATIONS
 62
     7
100
AcDbLine
 10
10.739482
 20
4.189667
 30
0.0
 11
10.565849
 21
4.344007
 31
0.0
  0
SPLINE
  5
43B
100
AcDbEntity
  8
SPECIFICATIONS
 62
     7
100
AcDbSpline
210
0.0
220
0.0
230
-1.0
 70
     8
 71
     3
 72
     8
 73
     4
 74
     0
 42
0.0000001
 43
0.0000001
 40
0.0
 40
0.0
 40
0.0
 40
0.0
 40
1.0
 40
1.0
 40
1.0
 40
1.0
 10
1.542799886067708
 20
-2.226479085286458
 30
0.0
 10
1.049462212456597
 20
-1.232224527994791
 30
0.0
 10
-0.0419440375434028
 20
-0.6837653266059027
 30
0.0
 10
-1.134039306640624
 20
-0.8815138075086805
 30
0.0
  0
SPLINE
  5
43A
100
AcDbEntity
  8
SPECIFICATIONS
 62
     7
100
AcDbSpline
210
0.0
220
0.0
230
-1.0
 70
     8
 71
     3
 72
    11
 73
     7
 74
     0
 42
0.0000001
 43
0.0000001
 40
0.0
 40
0.0
 40
0.0
 40
0.0
 40
1.0
 40
1.0
 40
1.0
 40
2.0
 40
2.0
 40
2.0
 40
2.0
 10
-1.034820556640625
 20
-1.425838894314235
 30
0.0
 10
-0.9562723795572916
 20
-0.5156446668836806
 30
0.0
 10
-1.630133056640624
 20
0.2849955240885416
 30
0.0
 10
-2.539638264973957
 20
0.3642327202690972
 30
0.0
 10
-3.205919731987846
 20
0.4214213053385416
 30
0.0
 10
-3.841195339626736
 20
0.072088623046875
 30
0.0
 10
-4.14953138563368
 20
-0.5211568196614583
 30
0.0
  0
LINE
  5
439
100
AcDbEntity
  8
SPECIFICATIONS
 62
     7
100
AcDbLine
 10
8.686894
 20
2.924628
 30
0.0
 11
8.686205
 21
2.601478
 31
0.0
  0
LINE
  5
438
100
AcDbEntity
  8
SPECIFICATIONS
 62
     7
100
AcDbLine
 10
8.60559
 20
3.394539
 30
0.0
 11
8.686894
 21
2.924628
 31
0.0
  0
LINE
  5
437
100
AcDbEntity
  8
SPECIFICATIONS
 62
     7
100
AcDbLine
 10
8.695163
 20
4.37019
 30
0.0
 11
8.60559
 21
3.394539
 31
0.0
  0
LINE
  5
436
100
AcDbEntity
  8
SPECIFICATIONS
 62
     7
100
AcDbLine
 10
8.604212
 20
2.442314
 30
0.0
 11
8.649687
 21
2.580807
 31
0.0
  0
SPLINE
  5
435
100
AcDbEntity
  8
SPECIFICATIONS
 62
     7
100
AcDbSpline
210
0.0
220
0.0
230
-1.0
 70
     8
 71
     3
 72
     8
 73
     4
 74
     0
 42
0.0000001
 43
0.0000001
 40
0.0
 40
0.0
 40
0.0
 40
0.0
 40
1.0
 40
1.0
 40
1.0
 40
1.0
 10
4.109396023220485
 20
-1.571910942925347
 30
0.0
 10
2.666934543185763
 20
-1.855786810980902
 30
0.0
 10
1.253411865234374
 20
-2.271954345703124
 30
0.0
 10
-0.1132575141059028
 20
-2.814212375217013
 30
0.0
  0
SPLINE
  5
434
100
AcDbEntity
  8
SPECIFICATIONS
 62
     7
100
AcDbSpline
210
0.0
220
0.0
230
1.0
 70
     8
 71
     3
 72
     8
 73
     4
 74
     0
 42
0.0000001
 43
0.0000001
 40
0.0
 40
0.0
 40
0.0
 40
0.0
 40
1.0
 40
1.0
 40
1.0
 40
1.0
 10
5.849513753255207
 20
-2.308472357855902
 30
0.0
 10
6.70320841471354
 20
-1.916420491536458
 30
0.0
 10
7.359154595269096
 20
-1.192261420355902
 30
0.0
 10
7.665079074435762
 20
-0.3034267849392361
 30
0.0
  0
SPLINE
  5
433
100
AcDbEntity
  8
SPECIFICATIONS
 62
     7
100
AcDbSpline
210
0.0
220
0.0
230
-1.0
 70
     8
 71
     3
 72
     8
 73
     4
 74
     0
 42
0.0000001
 43
0.0000001
 40
0.0
 40
0.0
 40
0.0
 40
0.0
 40
1.0
 40
1.0
 40
1.0
 40
1.0
 10
8.652443440755208
 20
2.49536878797743
 30
0.0
 10
7.032559543185763
 20
1.262024603949652
 30
0.0
 10
5.513272433810763
 20
-0.0974100748697917
 30
0.0
 10
4.109396023220485
 20
-1.571910942925347
 30
0.0
  0
LINE
  5
432
100
AcDbEntity
  8
SPECIFICATIONS
 62
     7
100
AcDbLine
 10
-8.61093
 20
5.624205
 30
0.0
 11
-8.419383
 21
5.535321
 31
0.0
  0
LINE
  5
431
100
AcDbEntity
  8
SPECIFICATIONS
 62
     7
100
AcDbLine
 10
-8.770093
 20
5.58493
 30
0.0
 11
-8.61093
 21
5.624205
 31
0.0
  0
LINE
  5
430
100
AcDbEntity
  8
SPECIFICATIONS
 62
     7
100
AcDbLine
 10
-8.851398
 20
5.460907
 30
0.0
 11
-8.770093
 21
5.58493
 31
0.0
  0
LINE
  5
42F
100
AcDbEntity
  8
SPECIFICATIONS
 62
     7
100
AcDbLine
 10
-8.444187
 20
5.560126
 30
0.0
 11
-8.275378
 21
4.926917
 31
0.0
  0
LINE
  5
42E
100
AcDbEntity
  8
SPECIFICATIONS
 62
     7
100
AcDbLine
 10
-8.841751
 20
5.26178
 30
0.0
 11
-8.851398
 21
5.460907
 31
0.0
  0
LINE
  5
42D
100
AcDbEntity
  8
SPECIFICATIONS
 62
     7
100
AcDbLine
 10
-8.959574
 20
5.357554
 30
0.0
 11
-8.833483
 21
5.252134
 31
0.0
  0
LINE
  5
42C
100
AcDbEntity
  8
SPECIFICATIONS
 62
     7
100
AcDbLine
 10
-10.075785
 20
4.6017
 30
0.0
 11
-10.097833
 21
4.342629
 31
0.0
  0
LINE
  5
42B
100
AcDbEntity
  8
SPECIFICATIONS
 62
     7
100
AcDbLine
 10
-9.931091
 20
4.689206
 30
0.0
 11
-10.075785
 21
4.6017
 31
0.0
  0
SPLINE
  5
42A
100
AcDbEntity
  8
SPECIFICATIONS
 62
     7
100
AcDbSpline
210
0.0
220
0.0
230
-1.0
 70
     8
 71
     3
 72
     8
 73
     4
 74
     0
 42
0.0000001
 43
0.0000001
 40
0.0
 40
0.0
 40
0.0
 40
0.0
 40
1.0
 40
1.0
 40
1.0
 40
1.0
 10
-10.09783325195312
 20
4.342628987630208
 30
0.0
 10
-10.11299167209201
 20
3.92163831922743
 30
0.0
 10
-10.06200425889756
 20
3.501336669921874
 30
0.0
 10
-9.946249050564235
 20
3.09688245985243
 30
0.0
  0
LINE
  5
429
100
AcDbEntity
  8
SPECIFICATIONS
 62
     7
100
AcDbLine
 10
-9.752635
 20
4.650621
 30
0.0
 11
-9.663751
 21
4.162106
 31
0.0
  0
LINE
  5
428
100
AcDbEntity
  8
SPECIFICATIONS
 62
     7
100
AcDbLine
 10
-9.319931
 20
5.224573
 30
0.0
 11
-9.191773
 21
5.366511
 31
0.0
  0
LINE
  5
427
100
AcDbEntity
  8
SPECIFICATIONS
 62
     7
100
AcDbLine
 10
-9.302016
 20
5.015801
 30
0.0
 11
-9.319931
 21
5.224573
 31
0.0
  0
LINE
  5
426
100
AcDbEntity
  8
SPECIFICATIONS
 62
     7
100
AcDbLine
 10
-9.305461
 20
5.024069
 30
0.0
 11
-9.196596
 21
4.413598
 31
0.0
  0
LINE
  5
425
100
AcDbEntity
  8
SPECIFICATIONS
 62
     7
100
AcDbLine
 10
-9.493564
 20
5.123288
 30
0.0
 11
-9.305461
 21
5.024069
 31
0.0
  0
LINE
  5
424
100
AcDbEntity
  8
SPECIFICATIONS
 62
     7
100
AcDbLine
 10
-9.658239
 20
5.077812
 30
0.0
 11
-9.493564
 21
5.123288
 31
0.0
  0
LINE
  5
423
100
AcDbEntity
  8
SPECIFICATIONS
 62
     7
100
AcDbLine
 10
-9.725763
 20
4.855259
 30
0.0
 11
-9.658239
 21
5.077812
 31
0.0
  0
LINE
  5
422
100
AcDbEntity
  8
SPECIFICATIONS
 62
     7
100
AcDbLine
 10
-9.752635
 20
4.650621
 30
0.0
 11
-9.725763
 21
4.855259
 31
0.0
  0
LINE
  5
421
100
AcDbEntity
  8
SPECIFICATIONS
 62
     7
100
AcDbLine
 10
-9.931091
 20
4.689206
 30
0.0
 11
-9.752635
 21
4.650621
 31
0.0
  0
LINE
  5
420
100
AcDbEntity
  8
SPECIFICATIONS
 62
     7
100
AcDbLine
 10
-8.833483
 20
5.252134
 30
0.0
 11
-8.776295
 21
4.582408
 31
0.0
  0
LINE
  5
41F
100
AcDbEntity
  8
SPECIFICATIONS
 62
     7
100
AcDbLine
 10
-9.191773
 20
5.366511
 30
0.0
 11
-8.959574
 21
5.357554
 31
0.0
  0
LINE
  5
41E
100
AcDbEntity
  8
SPECIFICATIONS
 62
     7
100
AcDbLine
 10
-8.346347
 20
3.975382
 30
0.0
 11
-7.954984
 21
4.351586
 31
0.0
  0
LINE
  5
41D
100
AcDbEntity
  8
SPECIFICATIONS
 62
     7
100
AcDbLine
 10
-8.585436
 20
3.032804
 30
0.0
 11
-8.80799
 21
2.799226
 31
0.0
  0
LINE
  5
41C
100
AcDbEntity
  8
SPECIFICATIONS
 62
     7
100
AcDbLine
 10
-8.200964
 20
3.315991
 30
0.0
 11
-8.585436
 21
3.032804
 31
0.0
  0
LINE
  5
41B
100
AcDbEntity
  8
SPECIFICATIONS
 62
     7
100
AcDbLine
 10
-8.858977
 20
2.626971
 30
0.0
 11
-8.796276
 21
2.758574
 31
0.0
  0
LINE
  5
41A
100
AcDbEntity
  8
SPECIFICATIONS
 62
     7
100
AcDbLine
 10
-8.858977
 20
2.626971
 30
0.0
 11
-8.763892
 21
1.948288
 31
0.0
  0
SPLINE
  5
419
100
AcDbEntity
  8
SPECIFICATIONS
 62
     7
100
AcDbSpline
210
0.0
220
0.0
230
-1.0
 70
     8
 71
     3
 72
    14
 73
    10
 74
     0
 42
0.0000001
 43
0.0000001
 40
0.0
 40
0.0
 40
0.0
 40
0.0
 40
1.0
 40
1.0
 40
1.0
 40
2.0
 40
2.0
 40
2.0
 40
3.0
 40
3.0
 40
3.0
 40
3.0
 10
-7.713138156467013
 20
3.925083414713541
 30
0.0
 10
-7.591870795355902
 20
3.991229248046874
 30
0.0
 10
-7.547773573133679
 20
4.142813449435763
 30
0.0
 10
-7.613230387369791
 20
4.263391791449651
 30
0.0
 10
-7.679376220703124
 20
4.384659152560763
 30
0.0
 10
-7.830960422092013
 20
4.428756374782985
 30
0.0
 10
-7.952227783203124
 20
4.363299560546874
 30
0.0
 10
-7.983233642578124
 20
4.346074083116318
 30
0.0
 10
-8.01010538736979
 20
4.322647433810763
 30
0.0
 10
-8.031464979383679
 20
4.294397650824651
 30
0.0
  0
LINE
  5
418
100
AcDbEntity
  8
SPECIFICATIONS
 62
     7
100
AcDbLine
 10
-7.591182
 20
4.08218
 30
0.0
 11
-8.200964
 21
3.315991
 31
0.0
  0
LINE
  5
417
100
AcDbEntity
  8
SPECIFICATIONS
 62
     7
100
AcDbLine
 10
-4.662162
 20
-1.169524
 30
0.0
 11
-4.005871
 21
-0.292402
 31
0.0
  0
LINE
  5
416
100
AcDbEntity
  8
SPECIFICATIONS
 62
     7
100
AcDbLine
 10
-4.986001
 20
-1.454089
 30
0.0
 11
-5.107957
 21
-1.519545
 31
0.0
  0
LINE
  5
415
100
AcDbEntity
  8
SPECIFICATIONS
 62
     7
100
AcDbLine
 10
-8.372529
 20
3.646031
 30
0.0
 11
-8.28778
 21
4.626505
 31
0.0
  0
LINE
  5
414
100
AcDbEntity
  8
SPECIFICATIONS
 62
     7
100
AcDbLine
 10
-8.275378
 20
4.926917
 30
0.0
 11
-8.288469
 21
4.37708
 31
0.0
  0
SPLINE
  5
413
100
AcDbEntity
  8
SPECIFICATIONS
 62
     7
100
AcDbSpline
210
0.0
220
0.0
230
1.0
 70
     8
 71
     3
 72
     8
 73
     4
 74
     0
 42
0.0000001
 43
0.0000001
 40
0.0
 40
0.0
 40
0.0
 40
0.0
 40
1.0
 40
1.0
 40
1.0
 40
1.0
 10
-1.059625244140624
 20
-2.243704562717013
 30
0.0
 10
-1.059625244140624
 20
-2.240259467230902
 30
0.0
 10
-1.060314263237847
 20
-2.236814371744791
 30
0.0
 10
-1.060314263237847
 20
-2.23336927625868
 30
0.0
  0
LINE
  5
412
100
AcDbEntity
  8
SPECIFICATIONS
 62
     7
100
AcDbLine
 10
-1.055491
 20
-2.632311
 30
0.0
 11
-0.923888
 21
-2.47177
 31
0.0
  0
LINE
  5
411
100
AcDbEntity
  8
SPECIFICATIONS
 62
     7
100
AcDbLine
 10
-0.923888
 20
-2.47177
 30
0.0
 11
-0.848785
 21
-2.588214
 31
0.0
  0
LINE
  5
410
100
AcDbEntity
  8
SPECIFICATIONS
 62
     7
100
AcDbLine
 10
-1.021729
 20
-2.491751
 30
0.0
 11
-1.029308
 21
-1.273566
 31
0.0
  0
LINE
  5
40F
100
AcDbEntity
  8
SPECIFICATIONS
 62
     7
100
AcDbLine
 10
-1.041022
 20
-3.510811
 30
0.0
 11
-1.22499
 21
-3.585225
 31
0.0
  0
LINE
  5
40E
100
AcDbEntity
  8
SPECIFICATIONS
 62
     7
100
AcDbLine
 10
-1.22499
 20
-3.585225
 30
0.0
 11
-1.23188
 21
-3.437775
 31
0.0
  0
LINE
  5
40D
100
AcDbEntity
  8
SPECIFICATIONS
 62
     7
100
AcDbLine
 10
-0.848785
 20
-2.588214
 30
0.0
 11
-1.041022
 21
-3.510811
 31
0.0
  0
LINE
  5
40C
100
AcDbEntity
  8
SPECIFICATIONS
 62
     7
100
AcDbLine
 10
-10.173625
 20
1.874563
 30
0.0
 11
-9.849097
 21
2.701385
 31
0.0
  0
LINE
  5
40B
100
AcDbEntity
  8
SPECIFICATIONS
 62
     7
100
AcDbLine
 10
-8.805233
 20
1.087014
 30
0.0
 11
-8.663985
 21
-0.111879
 31
0.0
  0
LINE
  5
40A
100
AcDbEntity
  8
SPECIFICATIONS
 62
     7
100
AcDbLine
 10
-5.392522
 20
-2.3946
 30
0.0
 11
-5.329132
 21
-2.557208
 31
0.0
  0
LINE
  5
409
100
AcDbEntity
  8
SPECIFICATIONS
 62
     7
100
AcDbLine
 10
-5.329132
 20
-2.557208
 30
0.0
 11
-5.175481
 21
-2.426295
 31
0.0
  0
LINE
  5
408
100
AcDbEntity
  8
SPECIFICATIONS
 62
     7
100
AcDbLine
 10
-9.849097
 20
2.701385
 30
0.0
 11
-9.961407
 21
3.082413
 31
0.0
  0
SPLINE
  5
407
100
AcDbEntity
  8
SPECIFICATIONS
 62
     7
100
AcDbSpline
210
0.0
220
0.0
230
-1.0
 70
     8
 71
     3
 72
    11
 73
     7
 74
     0
 42
0.0000001
 43
0.0000001
 40
0.0
 40
0.0
 40
0.0
 40
0.0
 40
1.0
 40
1.0
 40
1.0
 40
2.0
 40
2.0
 40
2.0
 40
2.0
 10
-6.706481255425346
 20
-0.1780253092447916
 30
0.0
 10
-7.453377956814235
 20
0.4227993435329861
 30
0.0
 10
-8.545473225911457
 20
0.3035990397135416
 30
0.0
 10
-9.145608859592012
 20
-0.442608642578125
 30
0.0
 10
-9.173169623480902
 20
-0.4770595974392361
 30
0.0
 10
-9.200041368272568
 20
-0.5128885904947916
 30
0.0
 10
-9.224846055772568
 20
-0.5494066026475694
 30
0.0
  0
SPLINE
  5
406
100
AcDbEntity
  8
SPECIFICATIONS
 62
     7
100
AcDbSpline
210
0.0
220
0.0
230
-1.0
 70
     8
 71
     3
 72
     8
 73
     4
 74
     0
 42
0.0000001
 43
0.0000001
 40
0.0
 40
0.0
 40
0.0
 40
0.0
 40
1.0
 40
1.0
 40
1.0
 40
1.0
 10
-3.539404975043402
 20
0.0996493869357639
 30
0.0
 10
-4.581546359592013
 20
0.4965243869357639
 30
0.0
 10
-5.748744710286457
 20
0.394549560546875
 30
0.0
 10
-6.706481255425346
 20
-0.1780253092447916
 30
0.0
  0
LINE
  5
405
100
AcDbEntity
  8
SPECIFICATIONS
 62
     7
100
AcDbLine
 10
-4.954306
 20
-1.680776
 30
0.0
 11
-4.986001
 21
-1.454089
 31
0.0
  0
LINE
  5
404
100
AcDbEntity
  8
SPECIFICATIONS
 62
     7
100
AcDbLine
 10
-5.107957
 20
-1.519545
 30
0.0
 11
-5.392522
 21
-2.3946
 31
0.0
  0
LINE
  5
403
100
AcDbEntity
  8
SPECIFICATIONS
 62
     7
100
AcDbLine
 10
-8.763892
 20
1.948288
 30
0.0
 11
-8.805233
 21
1.087014
 31
0.0
  0
SPLINE
  5
402
100
AcDbEntity
  8
SPECIFICATIONS
 62
     7
100
AcDbSpline
210
0.0
220
0.0
230
1.0
 70
     8
 71
     3
 72
     8
 73
     4
 74
     0
 42
0.0000001
 43
0.0000001
 40
0.0
 40
0.0
 40
0.0
 40
0.0
 40
1.0
 40
1.0
 40
1.0
 40
1.0
 10
-0.2479607476128472
 20
-5.613696967230902
 30
0.0
 10
1.265814208984374
 20
-5.327065022786458
 30
0.0
 10
2.722400580512152
 20
-4.791697184244791
 30
0.0
 10
4.061853705512151
 20
-4.030331081814235
 30
0.0
  0
ENDBLK
  5
45B
100
AcDbEntity
  8
SPECIFICATIONS
100
AcDbBlockEnd
  0
BLOCK
  5
480
100
AcDbEntity
  8
MATERIAL
 62
     7
100
AcDbBlockBegin
  2
AI9-BLK42
 70
     0
 10
0.0
 20
0.0
 30
0.0
  3
AI9-BLK42
  1

  0
MTEXT
  5
490
100
AcDbEntity
  8
MATERIAL
 62
     7
100
AcDbMText
 10
-27.041588
 20
-22.500353
 30
0.0
 40
2.099868
 41
0.0
 71
     1
 72
     2
  1
\fArial|b0|i0;288.00" Maximum travel area 144" material
  7
STD
 11
1.000001
 21
0.0
 31
0.0
  0
LINE
  5
48F
100
AcDbEntity
  8
MATERIAL
 62
     7
100
AcDbLine
 10
-91.440241
 20
25.658554
 30
0.0
 11
-91.440241
 21
-26.011332
 31
0.0
  0
LINE
  5
48E
100
AcDbEntity
  8
MATERIAL
 62
     7
100
AcDbLine
 10
91.440069
 20
26.011332
 30
0.0
 11
91.440069
 21
-26.011332
 31
0.0
  0
LINE
  5
48D
100
AcDbEntity
  8
MATERIAL
 62
     7
100
AcDbLine
 10
-91.440241
 20
-25.305777
 30
0.0
 11
91.440069
 21
-25.305777
 31
0.0
  0
POLYLINE
  5
488
100
AcDbEntity
  8
MATERIAL
 62
     7
100
AcDb2dPolyline
 66
     1
 10
0.0
 20
0.0
 30
0.0
 70
     1
  0
VERTEX
  5
489
100
AcDbEntity
  8
MATERIAL
 62
     7
100
AcDbVertex
100
AcDb2dVertex
 10
-89.75335
 20
-25.821163
 30
0.0
  0
VERTEX
  5
48A
100
AcDbEntity
  8
MATERIAL
 62
     7
100
AcDbVertex
100
AcDb2dVertex
 10
-91.440241
 20
-25.305777
 30
0.0
  0
VERTEX
  5
48B
100
AcDbEntity
  8
MATERIAL
 62
     7
100
AcDbVertex
100
AcDb2dVertex
 10
-89.75335
 20
-24.789701
 30
0.0
  0
SEQEND
  5
48C
100
AcDbEntity
  8
MATERIAL
 62
     7
  0
HATCH
  5
487
100
AcDbEntity
  8
MATERIAL
 62
     7
100
AcDbHatch
 10
0.0
 20
0.0
 30
0.0
210
0.0
220
0.0
230
1.0
  2
SOLID
 70
     1
 71
     0
 91
        1
 92
        3
 72
     0
 73
     1
 93
        3
 10
-89.75335015190971
 20
-25.82116292317708
 10
-91.44024115668402
 20
-25.30577663845486
 10
-89.75335015190971
 20
-24.78970133463541
 97
        0
 75
     0
 76
     1
 98
        1
 10
0.0
 20
0.0
  0
POLYLINE
  5
482
100
AcDbEntity
  8
MATERIAL
 62
     7
100
AcDb2dPolyline
 66
     1
 10
0.0
 20
0.0
 30
0.0
 70
     1
  0
VERTEX
  5
483
100
AcDbEntity
  8
MATERIAL
 62
     7
100
AcDbVertex
100
AcDb2dVertex
 10
89.75335
 20
-24.789701
 30
0.0
  0
VERTEX
  5
484
100
AcDbEntity
  8
MATERIAL
 62
     7
100
AcDbVertex
100
AcDb2dVertex
 10
91.440069
 20
-25.305777
 30
0.0
  0
VERTEX
  5
485
100
AcDbEntity
  8
MATERIAL
 62
     7
100
AcDbVertex
100
AcDb2dVertex
 10
89.75335
 20
-25.821163
 30
0.0
  0
SEQEND
  5
486
100
AcDbEntity
  8
MATERIAL
 62
     7
  0
HATCH
  5
481
100
AcDbEntity
  8
MATERIAL
 62
     7
100
AcDbHatch
 10
0.0
 20
0.0
 30
0.0
210
0.0
220
0.0
230
1.0
  2
SOLID
 70
     1
 71
     0
 91
        1
 92
        3
 72
     0
 73
     1
 93
        3
 10
89.75335015190971
 20
-24.78970133463541
 10
91.4400689019097
 20
-25.30577663845486
 10
89.75335015190971
 20
-25.82116292317708
 97
        0
 75
     0
 76
     1
 98
        1
 10
0.0
 20
0.0
  0
ENDBLK
  5
491
100
AcDbEntity
  8
MATERIAL
100
AcDbBlockEnd
  0
BLOCK
  5
498
100
AcDbEntity
  8
MATERIAL
 62
     7
100
AcDbBlockBegin
  2
AI9-BLK43
 70
     0
 10
0.0
 20
0.0
 30
0.0
  3
AI9-BLK43
  1

  0
POLYLINE
  5
499
100
AcDbEntity
  8
MATERIAL
 62
     7
100
AcDb2dPolyline
 66
     1
 10
0.0
 20
0.0
 30
0.0
 70
     1
  0
VERTEX
  5
49A
100
AcDbEntity
  8
MATERIAL
 62
     7
100
AcDbVertex
100
AcDb2dVertex
 10
-91.440155
 20
31.750086
 30
0.0
  0
VERTEX
  5
49B
100
AcDbEntity
  8
MATERIAL
 62
     7
100
AcDbVertex
100
AcDb2dVertex
 10
91.440155
 20
31.750086
 30
0.0
  0
VERTEX
  5
49C
100
AcDbEntity
  8
MATERIAL
 62
     7
100
AcDbVertex
100
AcDb2dVertex
 10
91.440155
 20
-31.750086
 30
0.0
  0
VERTEX
  5
49D
100
AcDbEntity
  8
MATERIAL
 62
     7
100
AcDbVertex
100
AcDb2dVertex
 10
-91.440155
 20
-31.750086
 30
0.0
  0
SEQEND
  5
49E
100
AcDbEntity
  8
MATERIAL
 62
     7
  0
ENDBLK
  5
49F
100
AcDbEntity
  8
MATERIAL
100
AcDbBlockEnd
  0
ENDSEC
  0
SECTION
  2
ENTITIES
  0
INSERT
  5
497
100
AcDbEntity
  8
MATERIAL
 62
     7
100
AcDbBlockReference
  2
AI9-BLK43
 10
218.886467
 20
-149.869836
 30
0.0
  0
MTEXT
  5
495
100
AcDbEntity
  8
MATERIAL
 62
     7
100
AcDbMText
 10
128.09933
 20
-122.587612
 30
0.0
 40
2.099868
 41
0.0
 71
     1
 72
     2
  1
\fArial|b0|i0;Support Tables Required
  7
STD
 11
1.000001
 21
0.0
 31
0.0
  0
MTEXT
  5
494
100
AcDbEntity
  8
MATERIAL
 62
     7
100
AcDbMText
 10
132.546948
 20
-119.236223
 30
0.0
 40
2.099868
 41
0.0
 71
     1
 72
     2
  1
\fArial|b0|i0;Optional Material 
  7
STD
 11
1.000001
 21
0.0
 31
0.0
  0
MTEXT
  5
493
100
AcDbEntity
  8
MATERIAL
 62
     7
100
AcDbMText
 10
278.37474
 20
-178.585055
 30
0.0
 40
2.099868
 41
0.0
 71
     1
 72
     2
  1
\fArial|b0|i0;Support Tables Required
  7
STD
 11
1.000001
 21
0.0
 31
0.0
  0
MTEXT
  5
492
100
AcDbEntity
  8
MATERIAL
 62
     7
100
AcDbMText
 10
282.822358
 20
-175.233666
 30
0.0
 40
2.099868
 41
0.0
 71
     1
 72
     2
  1
\fArial|b0|i0;Optional Material 
  7
STD
 11
1.000001
 21
0.0
 31
0.0
  0
INSERT
  5
47F
100
AcDbEntity
  8
MATERIAL
 62
     7
100
AcDbBlockReference
  2
AI9-BLK42
 10
218.886553
 20
-209.808554
 30
0.0
  0
MTEXT
  5
47C
100
AcDbEntity
  8
SPECIFICATIONS
 62
     7
100
AcDbMText
 10
14.263901
 20
-5.136276
 30
0.0
 40
2.624835
 41
0.0
 71
     1
 72
     2
  1
\fArial|b0|i0;Electrical Requirements
  7
STD
 11
1.000001
 21
0.0
 31
0.0
  0
MTEXT
  5
47B
100
AcDbEntity
  8
SPECIFICATIONS
 62
     7
100
AcDbMText
 10
20.6375
 20
-11.309888
 30
0.0
 40
2.624835
 41
0.0
 71
     1
 72
     2
  1
\fArial|b0|i0;Pega 357
  7
STD
 11
1.000001
 21
0.0
 31
0.0
  0
MTEXT
  5
47A
100
AcDbEntity
  8
SPECIFICATIONS
 62
     7
100
AcDbMText
 10
20.6375
 20
-15.455026
 30
0.0
 40
2.624835
 41
0.0
 71
     1
 72
     2
  1
\fArial|b0|i0;230 / 460 / 3 / 60 \M+100B110%  18 kVA
  7
STD
 11
1.000001
 21
0.0
 31
0.0
  0
MTEXT
  5
479
100
AcDbEntity
  8
SPECIFICATIONS
 62
     7
100
AcDbMText
 10
22.225
 20
-19.423776
 30
0.0
 40
2.624835
 41
0.0
 71
     1
 72
     2
  1
\fArial|b0|i0;46 amps @ 230 / 3 / 60 VAC
  7
STD
 11
1.000001
 21
0.0
 31
0.0
  0
MTEXT
  5
478
100
AcDbEntity
  8
SPECIFICATIONS
 62
     7
100
AcDbMText
 10
22.225
 20
-26.83211
 30
0.0
 40
2.624835
 41
0.0
 71
     1
 72
     2
  1
\fArial|b0|i0;
  7
STD
 11
1.000001
 21
0.0
 31
0.0
  0
MTEXT
  5
477
100
AcDbEntity
  8
SPECIFICATIONS
 62
     7
100
AcDbMText
 10
22.225
 20
-22.598776
 30
0.0
 40
2.624835
 41
0.0
 71
     1
 72
     2
  1
\fArial|b0|i0;23 amps @ 460 / 3 / 60 VAC
  7
STD
 11
1.000001
 21
0.0
 31
0.0
  0
POLYLINE
  5
471
100
AcDbEntity
  8
SPECIFICATIONS
 62
     7
100
AcDb2dPolyline
 66
     1
 10
0.0
 20
0.0
 30
0.0
 70
     1
  0
VERTEX
  5
472
100
AcDbEntity
  8
SPECIFICATIONS
 62
     7
100
AcDbVertex
100
AcDb2dVertex
 10
87.288901
 20
-9.348611
 30
0.0
  0
VERTEX
  5
473
100
AcDbEntity
  8
SPECIFICATIONS
 62
     7
100
AcDbVertex
100
AcDb2dVertex
 10
12.676401
 20
-9.348611
 30
0.0
  0
VERTEX
  5
474
100
AcDbEntity
  8
SPECIFICATIONS
 62
     7
100
AcDbVertex
100
AcDb2dVertex
 10
12.676401
 20
-4.586111
 30
0.0
  0
VERTEX
  5
475
100
AcDbEntity
  8
SPECIFICATIONS
 62
     7
100
AcDbVertex
100
AcDb2dVertex
 10
87.288901
 20
-4.586111
 30
0.0
  0
SEQEND
  5
476
100
AcDbEntity
  8
SPECIFICATIONS
 62
     7
  0
POLYLINE
  5
46B
100
AcDbEntity
  8
SPECIFICATIONS
 62
     7
100
AcDb2dPolyline
 66
     1
 10
0.0
 20
0.0
 30
0.0
 70
     1
  0
VERTEX
  5
46C
100
AcDbEntity
  8
SPECIFICATIONS
 62
     7
100
AcDbVertex
100
AcDb2dVertex
 10
87.288901
 20
-26.811111
 30
0.0
  0
VERTEX
  5
46D
100
AcDbEntity
  8
SPECIFICATIONS
 62
     7
100
AcDbVertex
100
AcDb2dVertex
 10
12.676401
 20
-26.811111
 30
0.0
  0
VERTEX
  5
46E
100
AcDbEntity
  8
SPECIFICATIONS
 62
     7
100
AcDbVertex
100
AcDb2dVertex
 10
12.676401
 20
-9.348611
 30
0.0
  0
VERTEX
  5
46F
100
AcDbEntity
  8
SPECIFICATIONS
 62
     7
100
AcDbVertex
100
AcDb2dVertex
 10
87.288901
 20
-9.348611
 30
0.0
  0
SEQEND
  5
470
100
AcDbEntity
  8
SPECIFICATIONS
 62
     7
  0
MTEXT
  5
46A
100
AcDbEntity
  8
SPECIFICATIONS
 62
     7
100
AcDbMText
 10
20.6375
 20
-35.122388
 30
0.0
 40
2.624835
 41
0.0
 71
     1
 72
     2
  1
\fArial|b0|i0;Pega 357
  7
STD
 11
1.000001
 21
0.0
 31
0.0
  0
MTEXT
  5
469
100
AcDbEntity
  8
SPECIFICATIONS
 62
     7
100
AcDbMText
 10
13.49375
 20
-28.772388
 30
0.0
 40
2.624835
 41
0.0
 71
     1
 72
     2
  1
\fArial|b0|i0;Compressed Air Requirements
  7
STD
 11
1.000001
 21
0.0
 31
0.0
  0
MTEXT
  5
468
100
AcDbEntity
  8
SPECIFICATIONS
 62
     7
100
AcDbMText
 10
52.3875
 20
-35.122388
 30
0.0
 40
2.624835
 41
0.0
 71
     1
 72
     2
  1
\fArial|b0|i0;80 psi @ 2.9 ft\M+100B3/min.
  7
STD
 11
1.000001
 21
0.0
 31
0.0
  0
POLYLINE
  5
462
100
AcDbEntity
  8
SPECIFICATIONS
 62
     7
100
AcDb2dPolyline
 66
     1
 10
0.0
 20
0.0
 30
0.0
 70
     1
  0
VERTEX
  5
463
100
AcDbEntity
  8
SPECIFICATIONS
 62
     7
100
AcDbVertex
100
AcDb2dVertex
 10
87.288901
 20
-32.984722
 30
0.0
  0
VERTEX
  5
464
100
AcDbEntity
  8
SPECIFICATIONS
 62
     7
100
AcDbVertex
100
AcDb2dVertex
 10
12.676401
 20
-32.984722
 30
0.0
  0
VERTEX
  5
465
100
AcDbEntity
  8
SPECIFICATIONS
 62
     7
100
AcDbVertex
100
AcDb2dVertex
 10
12.676401
 20
-28.222222
 30
0.0
  0
VERTEX
  5
466
100
AcDbEntity
  8
SPECIFICATIONS
 62
     7
100
AcDbVertex
100
AcDb2dVertex
 10
87.288901
 20
-28.222222
 30
0.0
  0
SEQEND
  5
467
100
AcDbEntity
  8
SPECIFICATIONS
 62
     7
  0
POLYLINE
  5
45C
100
AcDbEntity
  8
SPECIFICATIONS
 62
     7
100
AcDb2dPolyline
 66
     1
 10
0.0
 20
0.0
 30
0.0
 70
     1
  0
VERTEX
  5
45D
100
AcDbEntity
  8
SPECIFICATIONS
 62
     7
100
AcDbVertex
100
AcDb2dVertex
 10
87.288901
 20
-40.128472
 30
0.0
  0
VERTEX
  5
45E
100
AcDbEntity
  8
SPECIFICATIONS
 62
     7
100
AcDbVertex
100
AcDb2dVertex
 10
12.676401
 20
-40.128472
 30
0.0
  0
VERTEX
  5
45F
100
AcDbEntity
  8
SPECIFICATIONS
 62
     7
100
AcDbVertex
100
AcDb2dVertex
 10
12.676401
 20
-32.984722
 30
0.0
  0
VERTEX
  5
460
100
AcDbEntity
  8
SPECIFICATIONS
 62
     7
100
AcDbVertex
100
AcDb2dVertex
 10
87.288901
 20
-32.984722
 30
0.0
  0
SEQEND
  5
461
100
AcDbEntity
  8
SPECIFICATIONS
 62
     7
  0
INSERT
  5
400
100
AcDbEntity
  8
SPECIFICATIONS
 62
     7
100
AcDbBlockReference
  2
AI9-BLK41
 10
45.479481
 20
-53.025962
 30
0.0
  0
MTEXT
  5
3FE
100
AcDbEntity
  8
SPECIFICATIONS
 62
     7
100
AcDbMText
 10
16.193844
 20
-42.883499
 30
0.0
 40
2.624835
 41
0.0
 71
     1
 72
     2
  1
\fArial|b0|i0;Indicates Operator Control Station
  7
STD
 11
1.000001
 21
0.0
 31
0.0
  0
POLYLINE
  5
3F8
100
AcDbEntity
  8
SPECIFICATIONS
 62
     7
100
AcDb2dPolyline
 66
     1
 10
0.0
 20
0.0
 30
0.0
 70
     1
  0
VERTEX
  5
3F9
100
AcDbEntity
  8
SPECIFICATIONS
 62
     7
100
AcDbVertex
100
AcDb2dVertex
 10
73.024828
 20
-59.433409
 30
0.0
  0
VERTEX
  5
3FA
100
AcDbEntity
  8
SPECIFICATIONS
 62
     7
100
AcDbVertex
100
AcDb2dVertex
 10
12.676401
 20
-59.433409
 30
0.0
  0
VERTEX
  5
3FB
100
AcDbEntity
  8
SPECIFICATIONS
 62
     7
100
AcDbVertex
100
AcDb2dVertex
 10
12.676401
 20
-41.539583
 30
0.0
  0
VERTEX
  5
3FC
100
AcDbEntity
  8
SPECIFICATIONS
 62
     7
100
AcDbVertex
100
AcDb2dVertex
 10
73.024828
 20
-41.539583
 30
0.0
  0
SEQEND
  5
3FD
100
AcDbEntity
  8
SPECIFICATIONS
 62
     7
  0
INSERT
  5
3EC
100
AcDbEntity
  8
SPECIFICATIONS
 62
     7
100
AcDbBlockReference
  2
AI9-BLK40
 10
16.66875
 20
-12.892064
 30
0.0
  0
INSERT
  5
3DF
100
AcDbEntity
  8
SPECIFICATIONS
 62
     7
100
AcDbBlockReference
  2
AI9-BLK39
 10
227.026969
 20
-65.750681
 30
0.0
  0
INSERT
  5
3D2
100
AcDbEntity
  8
SPECIFICATIONS
 62
     7
100
AcDbBlockReference
  2
AI9-BLK38
 10
16.66875
 20
-36.585019
 30
0.0
  0
INSERT
  5
3C5
100
AcDbEntity
  8
SPECIFICATIONS
 62
     7
100
AcDbBlockReference
  2
AI9-BLK37
 10
203.499896
 20
-188.985019
 30
0.0
  0
INSERT
  5
395
100
AcDbEntity
  8
SPECIFICATIONS
 62
     7
100
AcDbBlockReference
  2
AI9-BLK32
 10
24.118252
 20
-66.288805
 30
0.0
  0
POLYLINE
  5
38D
100
AcDbEntity
  8
P357_PLAN
 62
     7
100
AcDb2dPolyline
 66
     1
 10
0.0
 20
0.0
 30
0.0
 70
     1
  0
VERTEX
  5
38E
100
AcDbEntity
  8
P357_PLAN
 62
     7
100
AcDbVertex
100
AcDb2dVertex
 10
238.838135
 20
-58.147183
 30
0.0
  0
VERTEX
  5
38F
100
AcDbEntity
  8
P357_PLAN
 62
     7
100
AcDbVertex
100
AcDb2dVertex
 10
224.136534
 20
-93.443909
 30
0.0
  0
VERTEX
  5
390
100
AcDbEntity
  8
P357_PLAN
 62
     7
100
AcDbVertex
100
AcDb2dVertex
 10
220.636317
 20
-89.943692
 30
0.0
  0
VERTEX
  5
391
100
AcDbEntity
  8
P357_PLAN
 62
     7
100
AcDbVertex
100
AcDb2dVertex
 10
235.337918
 20
-54.646966
 30
0.0
  0
SEQEND
  5
392
100
AcDbEntity
  8
P357_PLAN
 62
     7
  0
LINE
  5
38C
100
AcDbEntity
  8
P357_PLAN
 62
     7
100
AcDbLine
 10
212.636978
 20
-87.504564
 30
0.0
 11
225.055686
 21
-87.504564
 31
0.0
  0
POLYLINE
  5
386
100
AcDbEntity
  8
P357_PLAN
 62
     7
100
AcDb2dPolyline
 66
     1
 10
0.0
 20
0.0
 30
0.0
 70
     1
  0
VERTEX
  5
387
100
AcDbEntity
  8
P357_PLAN
 62
     7
100
AcDbVertex
100
AcDb2dVertex
 10
216.752317
 20
-87.504564
 30
0.0
  0
VERTEX
  5
388
100
AcDbEntity
  8
P357_PLAN
 62
     7
100
AcDbVertex
100
AcDb2dVertex
 10
216.752317
 20
-82.5798
 30
0.0
  0
VERTEX
  5
389
100
AcDbEntity
  8
P357_PLAN
 62
     7
100
AcDbVertex
100
AcDb2dVertex
 10
216.037632
 20
-82.5798
 30
0.0
  0
VERTEX
  5
38A
100
AcDbEntity
  8
P357_PLAN
 62
     7
100
AcDbVertex
100
AcDb2dVertex
 10
216.037632
 20
-87.504564
 30
0.0
  0
SEQEND
  5
38B
100
AcDbEntity
  8
P357_PLAN
 62
     7
  0
POLYLINE
  5
380
100
AcDbEntity
  8
P357_PLAN
 62
     7
100
AcDb2dPolyline
 66
     1
 10
0.0
 20
0.0
 30
0.0
 70
     1
  0
VERTEX
  5
381
100
AcDbEntity
  8
P357_PLAN
 62
     7
100
AcDbVertex
100
AcDb2dVertex
 10
221.735303
 20
-87.503875
 30
0.0
  0
VERTEX
  5
382
100
AcDbEntity
  8
P357_PLAN
 62
     7
100
AcDbVertex
100
AcDb2dVertex
 10
221.735303
 20
-82.579111
 30
0.0
  0
VERTEX
  5
383
100
AcDbEntity
  8
P357_PLAN
 62
     7
100
AcDbVertex
100
AcDb2dVertex
 10
221.02079
 20
-82.579111
 30
0.0
  0
VERTEX
  5
384
100
AcDbEntity
  8
P357_PLAN
 62
     7
100
AcDbVertex
100
AcDb2dVertex
 10
221.02079
 20
-87.503875
 30
0.0
  0
SEQEND
  5
385
100
AcDbEntity
  8
P357_PLAN
 62
     7
  0
POLYLINE
  5
37A
100
AcDbEntity
  8
P357_PLAN
 62
     7
100
AcDb2dPolyline
 66
     1
 10
0.0
 20
0.0
 30
0.0
 70
     1
  0
VERTEX
  5
37B
100
AcDbEntity
  8
P357_PLAN
 62
     7
100
AcDbVertex
100
AcDb2dVertex
 10
216.811572
 20
-87.48286
 30
0.0
  0
VERTEX
  5
37C
100
AcDbEntity
  8
P357_PLAN
 62
     7
100
AcDbVertex
100
AcDb2dVertex
 10
216.811572
 20
-82.579111
 30
0.0
  0
VERTEX
  5
37D
100
AcDbEntity
  8
P357_PLAN
 62
     7
100
AcDbVertex
100
AcDb2dVertex
 10
221.02079
 20
-82.579111
 30
0.0
  0
VERTEX
  5
37E
100
AcDbEntity
  8
P357_PLAN
 62
     7
100
AcDbVertex
100
AcDb2dVertex
 10
221.02079
 20
-87.48286
 30
0.0
  0
SEQEND
  5
37F
100
AcDbEntity
  8
P357_PLAN
 62
     7
  0
POLYLINE
  5
374
100
AcDbEntity
  8
P357_PLAN
 62
     7
100
AcDb2dPolyline
 66
     1
 10
0.0
 20
0.0
 30
0.0
 70
     1
  0
VERTEX
  5
375
100
AcDbEntity
  8
P357_PLAN
 62
     7
100
AcDbVertex
100
AcDb2dVertex
 10
212.636978
 20
-84.152486
 30
0.0
  0
VERTEX
  5
376
100
AcDbEntity
  8
P357_PLAN
 62
     7
100
AcDbVertex
100
AcDb2dVertex
 10
212.636978
 20
-103.34029
 30
0.0
  0
VERTEX
  5
377
100
AcDbEntity
  8
P357_PLAN
 62
     7
100
AcDbVertex
100
AcDb2dVertex
 10
194.761411
 20
-103.34029
 30
0.0
  0
VERTEX
  5
378
100
AcDbEntity
  8
P357_PLAN
 62
     7
100
AcDbVertex
100
AcDb2dVertex
 10
194.761411
 20
-84.152486
 30
0.0
  0
SEQEND
  5
379
100
AcDbEntity
  8
P357_PLAN
 62
     7
  0
POLYLINE
  5
369
100
AcDbEntity
  8
P357_PLAN
 62
     7
100
AcDb2dPolyline
 66
     1
 10
0.0
 20
0.0
 30
0.0
 70
     1
  0
VERTEX
  5
36A
100
AcDbEntity
  8
P357_PLAN
 62
     7
100
AcDbVertex
100
AcDb2dVertex
 10
199.047454
 20
-158.069249
 30
0.0
  0
VERTEX
  5
36B
100
AcDbEntity
  8
P357_PLAN
 62
     7
100
AcDbVertex
100
AcDb2dVertex
 10
199.047454
 20
-128.285882
 30
0.0
  0
VERTEX
  5
36C
100
AcDbEntity
  8
P357_PLAN
 62
     7
100
AcDbVertex
100
AcDb2dVertex
 10
202.53458
 20
-128.285882
 30
0.0
  0
VERTEX
  5
36D
100
AcDbEntity
  8
P357_PLAN
 62
     7
100
AcDbVertex
100
AcDb2dVertex
 10
202.53458
 20
-118.11975
 30
0.0
  0
VERTEX
  5
36E
100
AcDbEntity
  8
P357_PLAN
 62
     7
100
AcDbVertex
100
AcDb2dVertex
 10
212.636978
 20
-118.11975
 30
0.0
  0
VERTEX
  5
36F
100
AcDbEntity
  8
P357_PLAN
 62
     7
100
AcDbVertex
100
AcDb2dVertex
 10
212.636978
 20
-158.069249
 30
0.0
  0
VERTEX
  5
370
100
AcDbEntity
  8
P357_PLAN
 62
     7
100
AcDbVertex
100
AcDb2dVertex
 10
212.636978
 20
-161.925689
 30
0.0
  0
VERTEX
  5
371
100
AcDbEntity
  8
P357_PLAN
 62
     7
100
AcDbVertex
100
AcDb2dVertex
 10
202.53458
 20
-161.925689
 30
0.0
  0
VERTEX
  5
372
100
AcDbEntity
  8
P357_PLAN
 62
     7
100
AcDbVertex
100
AcDb2dVertex
 10
202.53458
 20
-158.069249
 30
0.0
  0
SEQEND
  5
373
100
AcDbEntity
  8
P357_PLAN
 62
     7
  0
POLYLINE
  5
363
100
AcDbEntity
  8
P357_PLAN
 62
     7
100
AcDb2dPolyline
 66
     1
 10
0.0
 20
0.0
 30
0.0
 70
     1
  0
VERTEX
  5
364
100
AcDbEntity
  8
P357_PLAN
 62
     7
100
AcDbVertex
100
AcDb2dVertex
 10
181.136058
 20
-149.870611
 30
0.0
  0
VERTEX
  5
365
100
AcDbEntity
  8
P357_PLAN
 62
     7
100
AcDbVertex
100
AcDb2dVertex
 10
181.136058
 20
-168.175781
 30
0.0
  0
VERTEX
  5
366
100
AcDbEntity
  8
P357_PLAN
 62
     7
100
AcDbVertex
100
AcDb2dVertex
 10
182.463798
 20
-168.175781
 30
0.0
  0
VERTEX
  5
367
100
AcDbEntity
  8
P357_PLAN
 62
     7
100
AcDbVertex
100
AcDb2dVertex
 10
182.463798
 20
-149.870611
 30
0.0
  0
SEQEND
  5
368
100
AcDbEntity
  8
P357_PLAN
 62
     7
  0
POLYLINE
  5
35D
100
AcDbEntity
  8
P357_PLAN
 62
     7
100
AcDb2dPolyline
 66
     1
 10
0.0
 20
0.0
 30
0.0
 70
     1
  0
VERTEX
  5
35E
100
AcDbEntity
  8
P357_PLAN
 62
     7
100
AcDbVertex
100
AcDb2dVertex
 10
182.463798
 20
-165.386632
 30
0.0
  0
VERTEX
  5
35F
100
AcDbEntity
  8
P357_PLAN
 62
     7
100
AcDbVertex
100
AcDb2dVertex
 10
202.53458
 20
-165.385254
 30
0.0
  0
VERTEX
  5
360
100
AcDbEntity
  8
P357_PLAN
 62
     7
100
AcDbVertex
100
AcDb2dVertex
 10
202.53458
 20
-161.109201
 30
0.0
  0
VERTEX
  5
361
100
AcDbEntity
  8
P357_PLAN
 62
     7
100
AcDbVertex
100
AcDb2dVertex
 10
182.463798
 20
-161.110579
 30
0.0
  0
SEQEND
  5
362
100
AcDbEntity
  8
P357_PLAN
 62
     7
  0
POLYLINE
  5
357
100
AcDbEntity
  8
P357_PLAN
 62
     7
100
AcDb2dPolyline
 66
     1
 10
0.0
 20
0.0
 30
0.0
 70
     1
  0
VERTEX
  5
358
100
AcDbEntity
  8
P357_PLAN
 62
     7
100
AcDbVertex
100
AcDb2dVertex
 10
267.586079
 20
-103.34029
 30
0.0
  0
VERTEX
  5
359
100
AcDbEntity
  8
P357_PLAN
 62
     7
100
AcDbVertex
100
AcDb2dVertex
 10
267.586079
 20
-113.589449
 30
0.0
  0
VERTEX
  5
35A
100
AcDbEntity
  8
P357_PLAN
 62
     7
100
AcDbVertex
100
AcDb2dVertex
 10
225.055686
 20
-113.589449
 30
0.0
  0
VERTEX
  5
35B
100
AcDbEntity
  8
P357_PLAN
 62
     7
100
AcDbVertex
100
AcDb2dVertex
 10
225.055686
 20
-103.34029
 30
0.0
  0
SEQEND
  5
35C
100
AcDbEntity
  8
P357_PLAN
 62
     7
  0
POLYLINE
  5
351
100
AcDbEntity
  8
P357_PLAN
 62
     7
100
AcDb2dPolyline
 66
     1
 10
0.0
 20
0.0
 30
0.0
 70
     1
  0
VERTEX
  5
352
100
AcDbEntity
  8
P357_PLAN
 62
     7
100
AcDbVertex
100
AcDb2dVertex
 10
251.977729
 20
-103.34029
 30
0.0
  0
VERTEX
  5
353
100
AcDbEntity
  8
P357_PLAN
 62
     7
100
AcDbVertex
100
AcDb2dVertex
 10
251.977729
 20
-90.871111
 30
0.0
  0
VERTEX
  5
354
100
AcDbEntity
  8
P357_PLAN
 62
     7
100
AcDbVertex
100
AcDb2dVertex
 10
233.31358
 20
-90.871111
 30
0.0
  0
VERTEX
  5
355
100
AcDbEntity
  8
P357_PLAN
 62
     7
100
AcDbVertex
100
AcDb2dVertex
 10
233.31358
 20
-103.34029
 30
0.0
  0
SEQEND
  5
356
100
AcDbEntity
  8
P357_PLAN
 62
     7
  0
POLYLINE
  5
34B
100
AcDbEntity
  8
P357_PLAN
 62
     7
100
AcDb2dPolyline
 66
     1
 10
0.0
 20
0.0
 30
0.0
 70
     1
  0
VERTEX
  5
34C
100
AcDbEntity
  8
P357_PLAN
 62
     7
100
AcDbVertex
100
AcDb2dVertex
 10
264.08724
 20
-113.589449
 30
0.0
  0
VERTEX
  5
34D
100
AcDbEntity
  8
P357_PLAN
 62
     7
100
AcDbVertex
100
AcDb2dVertex
 10
264.08724
 20
-123.5003
 30
0.0
  0
VERTEX
  5
34E
100
AcDbEntity
  8
P357_PLAN
 62
     7
100
AcDbVertex
100
AcDb2dVertex
 10
266.547038
 20
-123.5003
 30
0.0
  0
VERTEX
  5
34F
100
AcDbEntity
  8
P357_PLAN
 62
     7
100
AcDbVertex
100
AcDb2dVertex
 10
266.547038
 20
-113.589449
 30
0.0
  0
SEQEND
  5
350
100
AcDbEntity
  8
P357_PLAN
 62
     7
  0
POLYLINE
  5
341
100
AcDbEntity
  8
P357_PLAN
 62
     7
100
AcDb2dPolyline
 66
     1
 10
0.0
 20
0.0
 30
0.0
  0
VERTEX
  5
342
100
AcDbEntity
  8
P357_PLAN
 62
     7
100
AcDbVertex
100
AcDb2dVertex
 10
228.952778
 20
-161.925689
 30
0.0
  0
VERTEX
  5
343
100
AcDbEntity
  8
P357_PLAN
 62
     7
100
AcDbVertex
100
AcDb2dVertex
 10
228.954156
 20
-153.390809
 30
0.0
  0
VERTEX
  5
344
100
AcDbEntity
  8
P357_PLAN
 62
     7
100
AcDbVertex
100
AcDb2dVertex
 10
229.886399
 20
-152.458567
 30
0.0
  0
VERTEX
  5
345
100
AcDbEntity
  8
P357_PLAN
 62
     7
100
AcDbVertex
100
AcDb2dVertex
 10
229.886399
 20
-147.946181
 30
0.0
  0
VERTEX
  5
346
100
AcDbEntity
  8
P357_PLAN
 62
     7
100
AcDbVertex
100
AcDb2dVertex
 10
228.954156
 20
-146.348345
 30
0.0
  0
VERTEX
  5
347
100
AcDbEntity
  8
P357_PLAN
 62
     7
100
AcDbVertex
100
AcDb2dVertex
 10
228.954156
 20
-117.428319
 30
0.0
  0
VERTEX
  5
348
100
AcDbEntity
  8
P357_PLAN
 62
     7
100
AcDbVertex
100
AcDb2dVertex
 10
225.055686
 20
-117.428319
 30
0.0
  0
VERTEX
  5
349
100
AcDbEntity
  8
P357_PLAN
 62
     7
100
AcDbVertex
100
AcDb2dVertex
 10
225.054997
 20
-161.925689
 30
0.0
  0
SEQEND
  5
34A
100
AcDbEntity
  8
P357_PLAN
 62
     7
  0
SPLINE
  5
340
100
AcDbEntity
  8
P357_PLAN
 62
     7
100
AcDbSpline
210
0.0
220
0.0
230
-1.0
 70
     9
 71
     3
 72
    32
 73
    28
 74
     0
 42
0.0000001
 43
0.0000001
 40
0.0
 40
0.0
 40
0.0
 40
0.0
 40
1.0
 40
1.0
 40
1.0
 40
2.0
 40
2.0
 40
2.0
 40
3.0
 40
3.0
 40
3.0
 40
4.0
 40
4.0
 40
4.0
 40
5.0
 40
5.0
 40
5.0
 40
6.0
 40
6.0
 40
6.0
 40
7.0
 40
7.0
 40
7.0
 40
8.0
 40
8.0
 40
8.0
 40
9.0
 40
9.0
 40
9.0
 40
9.0
 10
229.8863986545138
 20
-149.8699218749999
 30
0.0
 10
229.8863986545138
 20
-149.8699218749999
 30
0.0
 10
260.5484374999999
 20
-149.867165798611
 30
0.0
 10
262.3178385416666
 20
-149.8699218749999
 30
0.0
 10
264.0872395833333
 20
-149.8726779513888
 30
0.0
 10
264.0872395833333
 20
-148.1129231770833
 30
0.0
 10
264.0872395833333
 20
-148.1129231770833
 30
0.0
 10
264.0872395833333
 20
-148.1129231770833
 30
0.0
 10
264.0872395833333
 20
-113.5894490559895
 30
0.0
 10
264.0872395833333
 20
-113.5894490559895
 30
0.0
 10
264.0872395833333
 20
-113.5894490559895
 30
0.0
 10
225.0556857638888
 20
-113.5312269422743
 30
0.0
 10
225.0556857638888
 20
-113.5312269422743
 30
0.0
 10
225.0556857638888
 20
-113.5312269422743
 30
0.0
 10
225.0556857638888
 20
-117.4283189561631
 30
0.0
 10
225.0556857638888
 20
-117.4283189561631
 30
0.0
 10
225.0556857638888
 20
-117.4283189561631
 30
0.0
 10
228.9541558159722
 20
-117.4283189561631
 30
0.0
 10
228.9541558159722
 20
-117.4283189561631
 30
0.0
 10
228.9541558159722
 20
-117.4283189561631
 30
0.0
 10
228.9541558159722
 20
-146.3483452690972
 30
0.0
 10
228.9541558159722
 20
-146.3483452690972
 30
0.0
 10
228.9541558159722
 20
-146.3483452690972
 30
0.0
 10
229.8863986545138
 20
-147.9461805555555
 30
0.0
 10
229.8863986545138
 20
-147.9461805555555
 30
0.0
 10
229.8863986545138
 20
-147.9461805555555
 30
0.0
 10
229.8863986545138
 20
-149.8699218749999
 30
0.0
 10
229.8863986545138
 20
-149.8699218749999
 30
0.0
  0
POLYLINE
  5
33A
100
AcDbEntity
  8
P357_PLAN
 62
     7
100
AcDb2dPolyline
 66
     1
 10
0.0
 20
0.0
 30
0.0
 70
     1
  0
VERTEX
  5
33B
100
AcDbEntity
  8
P357_PLAN
 62
     7
100
AcDbVertex
100
AcDb2dVertex
 10
231.815652
 20
-161.109201
 30
0.0
  0
VERTEX
  5
33C
100
AcDbEntity
  8
P357_PLAN
 62
     7
100
AcDbVertex
100
AcDb2dVertex
 10
231.815652
 20
-165.385254
 30
0.0
  0
VERTEX
  5
33D
100
AcDbEntity
  8
P357_PLAN
 62
     7
100
AcDbVertex
100
AcDb2dVertex
 10
258.280187
 20
-165.385254
 30
0.0
  0
VERTEX
  5
33E
100
AcDbEntity
  8
P357_PLAN
 62
     7
100
AcDbVertex
100
AcDb2dVertex
 10
258.280187
 20
-161.109201
 30
0.0
  0
SEQEND
  5
33F
100
AcDbEntity
  8
P357_PLAN
 62
     7
  0
POLYLINE
  5
334
100
AcDbEntity
  8
P357_PLAN
 62
     7
100
AcDb2dPolyline
 66
     1
 10
0.0
 20
0.0
 30
0.0
 70
     1
  0
VERTEX
  5
335
100
AcDbEntity
  8
P357_PLAN
 62
     7
100
AcDbVertex
100
AcDb2dVertex
 10
258.280187
 20
-149.868544
 30
0.0
  0
VERTEX
  5
336
100
AcDbEntity
  8
P357_PLAN
 62
     7
100
AcDbVertex
100
AcDb2dVertex
 10
258.280187
 20
-168.174403
 30
0.0
  0
VERTEX
  5
337
100
AcDbEntity
  8
P357_PLAN
 62
     7
100
AcDbVertex
100
AcDb2dVertex
 10
259.477702
 20
-168.174403
 30
0.0
  0
VERTEX
  5
338
100
AcDbEntity
  8
P357_PLAN
 62
     7
100
AcDbVertex
100
AcDb2dVertex
 10
259.477702
 20
-149.868544
 30
0.0
  0
SEQEND
  5
339
100
AcDbEntity
  8
P357_PLAN
 62
     7
  0
POLYLINE
  5
32E
100
AcDbEntity
  8
P357_PLAN
 62
     7
100
AcDb2dPolyline
 66
     1
 10
0.0
 20
0.0
 30
0.0
 70
     1
  0
VERTEX
  5
32F
100
AcDbEntity
  8
P357_PLAN
 62
     7
100
AcDbVertex
100
AcDb2dVertex
 10
208.41398
 20
-171.328733
 30
0.0
  0
VERTEX
  5
330
100
AcDbEntity
  8
P357_PLAN
 62
     7
100
AcDbVertex
100
AcDb2dVertex
 10
208.41398
 20
-195.505035
 30
0.0
  0
VERTEX
  5
331
100
AcDbEntity
  8
P357_PLAN
 62
     7
100
AcDbVertex
100
AcDb2dVertex
 10
212.636978
 20
-195.505035
 30
0.0
  0
VERTEX
  5
332
100
AcDbEntity
  8
P357_PLAN
 62
     7
100
AcDbVertex
100
AcDb2dVertex
 10
212.636978
 20
-171.328733
 30
0.0
  0
SEQEND
  5
333
100
AcDbEntity
  8
P357_PLAN
 62
     7
  0
POLYLINE
  5
328
100
AcDbEntity
  8
P357_PLAN
 62
     7
100
AcDb2dPolyline
 66
     1
 10
0.0
 20
0.0
 30
0.0
 70
     1
  0
VERTEX
  5
329
100
AcDbEntity
  8
P357_PLAN
 62
     7
100
AcDbVertex
100
AcDb2dVertex
 10
225.055686
 20
-195.479541
 30
0.0
  0
VERTEX
  5
32A
100
AcDbEntity
  8
P357_PLAN
 62
     7
100
AcDbVertex
100
AcDb2dVertex
 10
225.055686
 20
-171.654639
 30
0.0
  0
VERTEX
  5
32B
100
AcDbEntity
  8
P357_PLAN
 62
     7
100
AcDbVertex
100
AcDb2dVertex
 10
228.954156
 20
-171.653261
 30
0.0
  0
VERTEX
  5
32C
100
AcDbEntity
  8
P357_PLAN
 62
     7
100
AcDbVertex
100
AcDb2dVertex
 10
228.954156
 20
-195.478852
 30
0.0
  0
SEQEND
  5
32D
100
AcDbEntity
  8
P357_PLAN
 62
     7
  0
INSERT
  5
323
100
AcDbEntity
  8
P357_PLAN
 62
     7
100
AcDbBlockReference
  2
AI9-BLK31
 10
218.886295
 20
-160.881825
 30
0.0
  0
POLYLINE
  5
31C
100
AcDbEntity
  8
P357_PLAN
 62
     7
100
AcDb2dPolyline
 66
     1
 10
0.0
 20
0.0
 30
0.0
 70
     1
  0
VERTEX
  5
31D
100
AcDbEntity
  8
P357_PLAN
 62
     7
100
AcDbVertex
100
AcDb2dVertex
 10
231.815652
 20
-195.505035
 30
0.0
  0
VERTEX
  5
31E
100
AcDbEntity
  8
P357_PLAN
 62
     7
100
AcDbVertex
100
AcDb2dVertex
 10
231.815652
 20
-147.435617
 30
0.0
  0
VERTEX
  5
31F
100
AcDbEntity
  8
P357_PLAN
 62
     7
100
AcDbVertex
100
AcDb2dVertex
 10
225.055686
 20
-147.435617
 30
0.0
  0
VERTEX
  5
320
100
AcDbEntity
  8
P357_PLAN
 62
     7
100
AcDbVertex
100
AcDb2dVertex
 10
225.055686
 20
-195.505035
 30
0.0
  0
SEQEND
  5
321
100
AcDbEntity
  8
P357_PLAN
 62
     7
  0
POLYLINE
  5
316
100
AcDbEntity
  8
P357_PLAN
 62
     7
100
AcDb2dPolyline
 66
     1
 10
0.0
 20
0.0
 30
0.0
 70
     1
  0
VERTEX
  5
317
100
AcDbEntity
  8
P357_PLAN
 62
     7
100
AcDbVertex
100
AcDb2dVertex
 10
212.636978
 20
-171.328733
 30
0.0
  0
VERTEX
  5
318
100
AcDbEntity
  8
P357_PLAN
 62
     7
100
AcDbVertex
100
AcDb2dVertex
 10
212.636978
 20
-161.942225
 30
0.0
  0
VERTEX
  5
319
100
AcDbEntity
  8
P357_PLAN
 62
     7
100
AcDbVertex
100
AcDb2dVertex
 10
202.564208
 20
-161.942225
 30
0.0
  0
VERTEX
  5
31A
100
AcDbEntity
  8
P357_PLAN
 62
     7
100
AcDbVertex
100
AcDb2dVertex
 10
202.564208
 20
-171.328733
 30
0.0
  0
SEQEND
  5
31B
100
AcDbEntity
  8
P357_PLAN
 62
     7
  0
INSERT
  5
2FF
100
AcDbEntity
  8
P357_PLAN
 62
     7
100
AcDbBlockReference
  2
AI9-BLK28
 10
260.624574
 20
-115.852016
 30
0.0
  0
INSERT
  5
2E7
100
AcDbEntity
  8
P357_PLAN
 62
     7
100
AcDbBlockReference
  2
AI9-BLK25
 10
242.025882
 20
-115.852016
 30
0.0
  0
INSERT
  5
2DD
100
AcDbEntity
  8
P357_PLAN
 62
     7
100
AcDbBlockReference
  2
AI9-BLK24
 10
208.025201
 20
-175.29197
 30
0.0
  0
POLYLINE
  5
2D6
100
AcDbEntity
  8
P357_PLAN
 62
     7
100
AcDb2dPolyline
 66
     1
 10
0.0
 20
0.0
 30
0.0
 70
     1
  0
VERTEX
  5
2D7
100
AcDbEntity
  8
P357_PLAN
 62
     7
100
AcDbVertex
100
AcDb2dVertex
 10
233.31358
 20
-95.340089
 30
0.0
  0
VERTEX
  5
2D8
100
AcDbEntity
  8
P357_PLAN
 62
     7
100
AcDbVertex
100
AcDb2dVertex
 10
233.31358
 20
-97.516356
 30
0.0
  0
VERTEX
  5
2D9
100
AcDbEntity
  8
P357_PLAN
 62
     7
100
AcDbVertex
100
AcDb2dVertex
 10
225.055686
 20
-97.516356
 30
0.0
  0
VERTEX
  5
2DA
100
AcDbEntity
  8
P357_PLAN
 62
     7
100
AcDbVertex
100
AcDb2dVertex
 10
225.055686
 20
-95.340089
 30
0.0
  0
SEQEND
  5
2DB
100
AcDbEntity
  8
P357_PLAN
 62
     7
  0
LINE
  5
2D5
100
AcDbEntity
  8
P357_PLAN
 62
     7
100
AcDbLine
 10
202.53458
 20
-158.069249
 30
0.0
 11
202.53458
 21
-128.285882
 31
0.0
  0
LINE
  5
2D4
100
AcDbEntity
  8
P357_PLAN
 62
     7
100
AcDbLine
 10
228.954156
 20
-146.348345
 30
0.0
 11
228.954156
 21
-153.264719
 31
0.0
  0
INSERT
  5
2B1
100
AcDbEntity
  8
P357_PLAN
 62
     7
100
AcDbBlockReference
  2
AI9-BLK20
 10
225.771318
 20
-125.109934
 30
0.0
  0
LINE
  5
2AF
100
AcDbEntity
  8
P357_PLAN
 62
     7
100
AcDbLine
 10
228.952778
 20
-161.925689
 30
0.0
 11
225.055686
 21
-161.925689
 31
0.0
  0
POLYLINE
  5
2A9
100
AcDbEntity
  8
P357_PLAN
 62
     7
100
AcDb2dPolyline
 66
     1
 10
0.0
 20
0.0
 30
0.0
 70
     1
  0
VERTEX
  5
2AA
100
AcDbEntity
  8
P357_PLAN
 62
     7
100
AcDbVertex
100
AcDb2dVertex
 10
179.113787
 20
-99.459734
 30
0.0
  0
VERTEX
  5
2AB
100
AcDbEntity
  8
P357_PLAN
 62
     7
100
AcDbVertex
100
AcDb2dVertex
 10
179.113787
 20
-103.339945
 30
0.0
  0
VERTEX
  5
2AC
100
AcDbEntity
  8
P357_PLAN
 62
     7
100
AcDbVertex
100
AcDb2dVertex
 10
186.905904
 20
-103.339945
 30
0.0
  0
VERTEX
  5
2AD
100
AcDbEntity
  8
P357_PLAN
 62
     7
100
AcDbVertex
100
AcDb2dVertex
 10
186.905904
 20
-99.459734
 30
0.0
  0
SEQEND
  5
2AE
100
AcDbEntity
  8
P357_PLAN
 62
     7
  0
POLYLINE
  5
2A3
100
AcDbEntity
  8
P357_PLAN
 62
     7
100
AcDb2dPolyline
 66
     1
 10
0.0
 20
0.0
 30
0.0
 70
     1
  0
VERTEX
  5
2A4
100
AcDbEntity
  8
P357_PLAN
 62
     7
100
AcDbVertex
100
AcDb2dVertex
 10
179.113787
 20
-103.34029
 30
0.0
  0
VERTEX
  5
2A5
100
AcDbEntity
  8
P357_PLAN
 62
     7
100
AcDbVertex
100
AcDb2dVertex
 10
179.113615
 20
-99.459734
 30
0.0
  0
VERTEX
  5
2A6
100
AcDbEntity
  8
P357_PLAN
 62
     7
100
AcDbVertex
100
AcDb2dVertex
 10
173.136374
 20
-99.459734
 30
0.0
  0
VERTEX
  5
2A7
100
AcDbEntity
  8
P357_PLAN
 62
     7
100
AcDbVertex
100
AcDb2dVertex
 10
173.136546
 20
-103.34029
 30
0.0
  0
SEQEND
  5
2A8
100
AcDbEntity
  8
P357_PLAN
 62
     7
  0
LINE
  5
2A2
100
AcDbEntity
  8
P357_PLAN
  6
AI9-LTYPE2
 62
     7
100
AcDbLine
 10
218.886209
 20
-226.687627
 30
0.0
 11
218.886209
 21
-68.277486
 31
0.0
  0
LINE
  5
2A1
100
AcDbEntity
  8
P357_PLAN
  6
AI9-LTYPE2
 62
     7
100
AcDbLine
 10
111.223357
 20
-149.869922
 30
0.0
 11
227.531331
 21
-149.869922
 31
0.0
  0
LINE
  5
29F
100
AcDbEntity
  8
P357_PLAN
  6
AI9-LTYPE1
 62
     7
100
AcDbLine
 10
159.327743
 20
-118.11975
 30
0.0
 11
276.685265
 21
-118.11975
 31
0.0
  0
MTEXT
  5
29E
100
AcDbEntity
  8
P357_PLAN
 62
     7
100
AcDbMText
 10
231.352631
 20
-105.712829
 30
0.0
 40
4.724702
 41
0.0
 71
     1
 72
     2
  1
\fArial|b0|i0;PEGA 357
  7
STD
 11
1.000001
 21
0.0
 31
0.0
  0
MTEXT
  5
29D
100
AcDbEntity
  8
P357_PLAN
 62
     7
100
AcDbMText
 10
223.066258
 20
-61.495816
 30
0.0
 40
3.674769
 41
0.0
 71
     1
 72
     2
  1
\fArial|b0|i0;Fanuc 04PC
  7
STD
 11
0.0
 21
1.0
 31
0.0
  0
POLYLINE
  5
297
100
AcDbEntity
  8
P357_PLAN
 62
     7
100
AcDb2dPolyline
 66
     1
 10
0.0
 20
0.0
 30
0.0
 70
     1
  0
VERTEX
  5
298
100
AcDbEntity
  8
P357_PLAN
 62
     7
100
AcDbVertex
100
AcDb2dVertex
 10
238.838135
 20
-58.147183
 30
0.0
  0
VERTEX
  5
299
100
AcDbEntity
  8
P357_PLAN
 62
     7
100
AcDbVertex
100
AcDb2dVertex
 10
224.136534
 20
-93.443909
 30
0.0
  0
VERTEX
  5
29A
100
AcDbEntity
  8
P357_PLAN
 62
     7
100
AcDbVertex
100
AcDb2dVertex
 10
220.636317
 20
-89.943692
 30
0.0
  0
VERTEX
  5
29B
100
AcDbEntity
  8
P357_PLAN
 62
     7
100
AcDbVertex
100
AcDb2dVertex
 10
235.337918
 20
-54.646966
 30
0.0
  0
SEQEND
  5
29C
100
AcDbEntity
  8
P357_PLAN
 62
     7
  0
LINE
  5
296
100
AcDbEntity
  8
P357_PLAN
  6
AI9-LTYPE1
 62
     7
100
AcDbLine
 10
262.130425
 20
-53.939688
 30
0.0
 11
239.587788
 21
-53.939688
 31
0.0
  0
LINE
  5
295
100
AcDbEntity
  8
P357_PLAN
  6
AI9-LTYPE1
 62
     7
100
AcDbLine
 10
213.380429
 20
-62.647167
 30
0.0
 11
222.088081
 21
-62.647167
 31
0.0
  0
LINE
  5
294
100
AcDbEntity
  8
P357_PLAN
  6
AI9-LTYPE1
 62
     7
100
AcDbLine
 10
222.088081
 20
-80.109667
 30
0.0
 11
222.088081
 21
-62.647167
 31
0.0
  0
LINE
  5
293
100
AcDbEntity
  8
P357_PLAN
  6
AI9-LTYPE1
 62
     7
100
AcDbLine
 10
199.54527
 20
-31.39705
 30
0.0
 11
222.088081
 21
-31.39705
 31
0.0
  0
SPLINE
  5
292
100
AcDbEntity
  8
P357_PLAN
  6
AI9-LTYPE1
 62
     7
100
AcDbSpline
210
0.0
220
0.0
230
1.0
 70
     8
 71
     3
 72
     8
 73
     4
 74
     0
 42
0.0000001
 43
0.0000001
 40
0.0
 40
0.0
 40
0.0
 40
0.0
 40
1.0
 40
1.0
 40
1.0
 40
1.0
 10
199.545270453559
 20
-31.39704996744791
 30
0.0
 10
199.5456149631076
 20
-43.84693603515624
 30
0.0
 10
209.6380221896701
 20
-53.93968777126736
 30
0.0
 10
222.0880805121527
 20
-53.93968777126736
 30
0.0
  0
SPLINE
  5
291
100
AcDbEntity
  8
P357_PLAN
  6
AI9-LTYPE1
 62
     7
100
AcDbSpline
210
0.0
220
0.0
230
-1.0
 70
     8
 71
     3
 72
    11
 73
     7
 74
     0
 42
0.0000001
 43
0.0000001
 40
0.0
 40
0.0
 40
0.0
 40
0.0
 40
1.0
 40
1.0
 40
1.0
 40
2.0
 40
2.0
 40
2.0
 40
2.0
 10
222.0791232638888
 20
-54.16706407335069
 30
0.0
 10
217.3993055555555
 20
-54.17188720703125
 30
0.0
 10
213.6078057183159
 20
-57.96700439453124
 30
0.0
 10
213.6078057183159
 20
-62.64716661241319
 30
0.0
 10
213.6078057183159
 20
-62.65784640842014
 30
0.0
 10
213.6078057183159
 20
-62.66645914713541
 30
0.0
 10
213.6078057183159
 20
-62.67713894314235
 30
0.0
  0
SPLINE
  5
290
100
AcDbEntity
  8
P357_PLAN
  6
AI9-LTYPE1
 62
     7
100
AcDbSpline
210
0.0
220
0.0
230
1.0
 70
     8
 71
     3
 72
    11
 73
     7
 74
     0
 42
0.0000001
 43
0.0000001
 40
0.0
 40
0.0
 40
0.0
 40
0.0
 40
1.0
 40
1.0
 40
1.0
 40
2.0
 40
2.0
 40
2.0
 40
2.0
 10
222.0880805121527
 20
-80.10966661241319
 30
0.0
 10
222.0880805121527
 20
-80.10966661241319
 30
0.0
 10
222.0880805121527
 20
-80.10966661241319
 30
0.0
 10
222.0880805121527
 20
-80.10966661241319
 30
0.0
 10
231.6840494791666
 20
-80.10966661241319
 30
0.0
 10
239.4747884114583
 20
-72.37990587022569
 30
0.0
 10
239.5498914930555
 20
-62.78428141276041
 30
0.0
  0
SPLINE
  5
28F
100
AcDbEntity
  8
P357_PLAN
  6
AI9-LTYPE1
 62
     7
100
AcDbSpline
210
0.0
220
0.0
230
-1.0
 70
     8
 71
     3
 72
     8
 73
     4
 74
     0
 42
0.0000001
 43
0.0000001
 40
0.0
 40
0.0
 40
0.0
 40
0.0
 40
1.0
 40
1.0
 40
1.0
 40
1.0
 10
262.1304253472221
 20
-53.93968777126736
 30
0.0
 10
262.1304253472221
 20
-41.48980170355902
 30
0.0
 10
252.037673611111
 20
-31.39704996744791
 30
0.0
 10
239.5877875434027
 20
-31.39704996744791
 30
0.0
  0
POLYLINE
  5
288
100
AcDbEntity
  8
P357_PLAN
 62
     7
100
AcDb2dPolyline
 66
     1
 10
0.0
 20
0.0
 30
0.0
  0
VERTEX
  5
289
100
AcDbEntity
  8
P357_PLAN
 62
     7
100
AcDbVertex
100
AcDb2dVertex
 10
212.636289
 20
-113.58876
 30
0.0
  0
VERTEX
  5
28A
100
AcDbEntity
  8
P357_PLAN
 62
     7
100
AcDbVertex
100
AcDb2dVertex
 10
173.136546
 20
-113.589449
 30
0.0
  0
VERTEX
  5
28B
100
AcDbEntity
  8
P357_PLAN
 62
     7
100
AcDbVertex
100
AcDb2dVertex
 10
173.137408
 20
-103.34029
 30
0.0
  0
VERTEX
  5
28C
100
AcDbEntity
  8
P357_PLAN
 62
     7
100
AcDbVertex
100
AcDb2dVertex
 10
212.637322
 20
-103.339601
 30
0.0
  0
SEQEND
  5
28D
100
AcDbEntity
  8
P357_PLAN
 62
     7
  0
SPLINE
  5
287
100
AcDbEntity
  8
P357_PLAN
 62
     7
100
AcDbSpline
210
0.0
220
0.0
230
1.0
 70
     8
 71
     3
 72
    32
 73
    28
 74
     0
 42
0.0000001
 43
0.0000001
 40
0.0
 40
0.0
 40
0.0
 40
0.0
 40
1.0
 40
1.0
 40
1.0
 40
2.0
 40
2.0
 40
2.0
 40
3.0
 40
3.0
 40
3.0
 40
4.0
 40
4.0
 40
4.0
 40
5.0
 40
5.0
 40
5.0
 40
6.0
 40
6.0
 40
6.0
 40
7.0
 40
7.0
 40
7.0
 40
8.0
 40
8.0
 40
8.0
 40
9.0
 40
9.0
 40
9.0
 40
9.0
 10
212.6369778103298
 20
-117.8327731662326
 30
0.0
 10
212.6369778103298
 20
-117.8327731662326
 30
0.0
 10
212.6369778103298
 20
-113.5894490559895
 30
0.0
 10
212.6369778103298
 20
-113.5894490559895
 30
0.0
 10
212.6369778103298
 20
-113.5894490559895
 30
0.0
 10
173.1365464952256
 20
-113.5894490559895
 30
0.0
 10
173.1365464952256
 20
-113.5894490559895
 30
0.0
 10
173.1365464952256
 20
-113.5894490559895
 30
0.0
 10
173.1365464952256
 20
-147.3522460937499
 30
0.0
 10
173.1365464952256
 20
-148.6117730034722
 30
0.0
 10
173.1365464952256
 20
-149.8706108940972
 30
0.0
 10
174.7188788519965
 20
-149.8699218749999
 30
0.0
 10
174.7188788519965
 20
-149.8699218749999
 30
0.0
 10
174.7188788519965
 20
-149.8699218749999
 30
0.0
 10
198.8607299804687
 20
-149.8699218749999
 30
0.0
 10
198.8607299804687
 20
-149.8699218749999
 30
0.0
 10
198.8607299804687
 20
-149.8699218749999
 30
0.0
 10
199.0474541558159
 20
-128.2858818901909
 30
0.0
 10
199.0474541558159
 20
-128.2858818901909
 30
0.0
 10
199.0474541558159
 20
-128.2858818901909
 30
0.0
 10
202.5345798068576
 20
-128.2858818901909
 30
0.0
 10
202.5345798068576
 20
-128.2858818901909
 30
0.0
 10
202.5345798068576
 20
-128.2858818901909
 30
0.0
 10
202.5345798068576
 20
-118.1197496202256
 30
0.0
 10
202.5345798068576
 20
-118.1197496202256
 30
0.0
 10
202.5345798068576
 20
-118.1197496202256
 30
0.0
 10
212.6369778103298
 20
-118.1197496202256
 30
0.0
 10
212.6369778103298
 20
-118.1197496202256
 30
0.0
  0
INSERT
  5
22B
100
AcDbEntity
  8
P357_PLAN
 62
     7
100
AcDbBlockReference
  2
AI9-BLK19
 10
240.240633
 20
-178.478512
 30
0.0
  0
INSERT
  5
1CE
100
AcDbEntity
  8
P357_PLAN
 62
     7
100
AcDbBlockReference
  2
AI9-BLK18
 10
247.928708
 20
-46.052917
 30
0.0
  0
INSERT
  5
171
100
AcDbEntity
  8
P357_PLAN
 62
     7
100
AcDbBlockReference
  2
AI9-BLK17
 10
274.903806
 20
-120.772473
 30
0.0
  0
POLYLINE
  5
16A
100
AcDbEntity
  8
P357_PLAN
 62
     7
100
AcDb2dPolyline
 66
     1
 10
0.0
 20
0.0
 30
0.0
 70
     1
  0
VERTEX
  5
16B
100
AcDbEntity
  8
P357_PLAN
 62
     7
100
AcDbVertex
100
AcDb2dVertex
 10
222.088081
 20
-62.647167
 30
0.0
  0
VERTEX
  5
16C
100
AcDbEntity
  8
P357_PLAN
 62
     7
100
AcDbVertex
100
AcDb2dVertex
 10
222.088081
 20
-31.39705
 30
0.0
  0
VERTEX
  5
16D
100
AcDbEntity
  8
P357_PLAN
 62
     7
100
AcDbVertex
100
AcDb2dVertex
 10
239.587788
 20
-31.39705
 30
0.0
  0
VERTEX
  5
16E
100
AcDbEntity
  8
P357_PLAN
 62
     7
100
AcDbVertex
100
AcDb2dVertex
 10
239.587788
 20
-62.647167
 30
0.0
  0
SEQEND
  5
16F
100
AcDbEntity
  8
P357_PLAN
 62
     7
  0
INSERT
  5
158
100
AcDbEntity
  8
P357_PLAN
 62
     7
100
AcDbBlockReference
  2
AI9-BLK16
 10
124.27381
 20
-133.994922
 30
0.0
  0
INSERT
  5
144
100
AcDbEntity
  8
P357_PLAN
 62
     7
100
AcDbBlockReference
  2
AI9-BLK15
 10
121.646408
 20
-149.869922
 30
0.0
  0
INSERT
  5
130
100
AcDbEntity
  8
P357_PLAN
 62
     7
100
AcDbBlockReference
  2
AI9-BLK14
 10
161.88607
 20
-116.224947
 30
0.0
  0
INSERT
  5
11C
100
AcDbEntity
  8
P357_PLAN
 62
     7
100
AcDbBlockReference
  2
AI9-BLK13
 10
158.074245
 20
-172.687478
 30
0.0
  0
INSERT
  5
108
100
AcDbEntity
  8
P357_PLAN
 62
     7
100
AcDbBlockReference
  2
AI9-BLK12
 10
154.52304
 20
-139.042504
 30
0.0
  0
INSERT
  5
F4
100
AcDbEntity
  8
P357_PLAN
 62
     7
100
AcDbBlockReference
  2
AI9-BLK11
 10
211.739014
 20
-72.613483
 30
0.0
  0
INSERT
  5
E2
100
AcDbEntity
  8
P357_PLAN
 62
     7
100
AcDbBlockReference
  2
AI9-BLK10
 10
210.044113
 20
-47.022108
 30
0.0
  0
INSERT
  5
CE
100
AcDbEntity
  8
P357_PLAN
 62
     7
100
AcDbBlockReference
  2
AI9-BLK9
 10
217.194581
 20
-67.412767
 30
0.0
  0
INSERT
  5
B9
100
AcDbEntity
  8
P357_PLAN
 62
     7
100
AcDbBlockReference
  2
AI9-BLK8
 10
230.837934
 20
-28.603078
 30
0.0
  0
LINE
  5
B7
100
AcDbEntity
  8
P357_PLAN
 62
     7
100
AcDbLine
 10
235.405442
 20
-58.215051
 30
0.0
 11
238.905659
 21
-54.714834
 31
0.0
  0
LINE
  5
B6
100
AcDbEntity
  8
P357_PLAN
 62
     7
100
AcDbLine
 10
235.337918
 20
-54.646966
 30
0.0
 11
238.838135
 21
-58.147183
 31
0.0
  0
INSERT
  5
A2
100
AcDbEntity
  8
P357_PLAN
 62
     7
100
AcDbBlockReference
  2
AI9-BLK7
 10
235.575457
 20
-77.31957
 30
0.0
  0
MTEXT
  5
A0
100
AcDbEntity
  8
P357_PLAN
 62
     7
100
AcDbMText
 10
219.300916
 20
-209.101104
 30
0.0
 40
2.099868
 41
0.0
 71
     1
 72
     2
  1
\fArial|b0|i0;Centerline
  7
STD
 11
0.0
 21
1.0
 31
0.0
  0
MTEXT
  5
9F
100
AcDbEntity
  8
P357_PLAN
 62
     7
100
AcDbMText
 10
215.949527
 20
-209.103171
 30
0.0
 40
2.099868
 41
0.0
 71
     1
 72
     2
  1
\fArial|b0|i0;Pega 357 
  7
STD
 11
0.0
 21
1.0
 31
0.0
  0
INSERT
  5
62
100
AcDbEntity
  8
P357_PLAN
 62
     7
100
AcDbBlockReference
  2
AI9-BLK3
 10
220.36071
 20
-172.950425
 30
0.0
  0
MTEXT
  5
60
100
AcDbEntity
  8
P357_PLAN
 62
     7
100
AcDbMText
 10
127.303685
 20
-114.913489
 30
0.0
 40
2.099868
 41
0.0
 71
     1
 72
     2
  1
\fArial|b0|i0;Y axis origin
  7
STD
 11
1.000001
 21
0.0
 31
0.0
  0
POLYLINE
  5
4B
100
AcDbEntity
  8
SAFETY_MAINTENANCE
 62
     7
100
AcDb2dPolyline
 66
     1
 10
0.0
 20
0.0
 30
0.0
 70
     1
  0
VERTEX
  5
4C
100
AcDbEntity
  8
SAFETY_MAINTENANCE
 62
     7
100
AcDbVertex
100
AcDb2dVertex
 10
305.262332
 20
-37.628194
 30
0.0
  0
VERTEX
  5
4D
100
AcDbEntity
  8
SAFETY_MAINTENANCE
 62
     7
100
AcDbVertex
100
AcDb2dVertex
 10
305.262332
 20
-92.71975
 30
0.0
  0
VERTEX
  5
4E
100
AcDbEntity
  8
SAFETY_MAINTENANCE
 62
     7
100
AcDbVertex
100
AcDb2dVertex
 10
335.726622
 20
-92.71975
 30
0.0
  0
VERTEX
  5
4F
100
AcDbEntity
  8
SAFETY_MAINTENANCE
 62
     7
100
AcDbVertex
100
AcDb2dVertex
 10
335.726622
 20
-207.019922
 30
0.0
  0
VERTEX
  5
50
100
AcDbEntity
  8
SAFETY_MAINTENANCE
 62
     7
100
AcDbVertex
100
AcDb2dVertex
 10
257.215652
 20
-207.019922
 30
0.0
  0
VERTEX
  5
51
100
AcDbEntity
  8
SAFETY_MAINTENANCE
 62
     7
100
AcDbVertex
100
AcDb2dVertex
 10
257.215652
 20
-220.905035
 30
0.0
  0
VERTEX
  5
52
100
AcDbEntity
  8
SAFETY_MAINTENANCE
 62
     7
100
AcDbVertex
100
AcDb2dVertex
 10
183.01398
 20
-220.905035
 30
0.0
  0
VERTEX
  5
53
100
AcDbEntity
  8
SAFETY_MAINTENANCE
 62
     7
100
AcDbVertex
100
AcDb2dVertex
 10
183.01398
 20
-207.019922
 30
0.0
  0
VERTEX
  5
54
100
AcDbEntity
  8
SAFETY_MAINTENANCE
 62
     7
100
AcDbVertex
100
AcDb2dVertex
 10
102.046312
 20
-207.019922
 30
0.0
  0
VERTEX
  5
55
100
AcDbEntity
  8
SAFETY_MAINTENANCE
 62
     7
100
AcDbVertex
100
AcDb2dVertex
 10
102.046312
 20
-92.71975
 30
0.0
  0
VERTEX
  5
56
100
AcDbEntity
  8
SAFETY_MAINTENANCE
 62
     7
100
AcDbVertex
100
AcDb2dVertex
 10
147.736202
 20
-92.71975
 30
0.0
  0
VERTEX
  5
57
100
AcDbEntity
  8
SAFETY_MAINTENANCE
 62
     7
100
AcDbVertex
100
AcDb2dVertex
 10
147.736202
 20
-74.059734
 30
0.0
  0
VERTEX
  5
58
100
AcDbEntity
  8
SAFETY_MAINTENANCE
 62
     7
100
AcDbVertex
100
AcDb2dVertex
 10
174.14527
 20
-74.059734
 30
0.0
  0
VERTEX
  5
59
100
AcDbEntity
  8
SAFETY_MAINTENANCE
 62
     7
100
AcDbVertex
100
AcDb2dVertex
 10
174.14527
 20
-31.397739
 30
0.0
  0
VERTEX
  5
5A
100
AcDbEntity
  8
SAFETY_MAINTENANCE
 62
     7
100
AcDbVertex
100
AcDb2dVertex
 10
196.687908
 20
-31.397222
 30
0.0
  0
VERTEX
  5
5B
100
AcDbEntity
  8
SAFETY_MAINTENANCE
 62
     7
100
AcDbVertex
100
AcDb2dVertex
 10
196.687908
 20
-5.997222
 30
0.0
  0
VERTEX
  5
5C
100
AcDbEntity
  8
SAFETY_MAINTENANCE
 62
     7
100
AcDbVertex
100
AcDb2dVertex
 10
264.987788
 20
-5.997222
 30
0.0
  0
VERTEX
  5
5D
100
AcDbEntity
  8
SAFETY_MAINTENANCE
 62
     7
100
AcDbVertex
100
AcDb2dVertex
 10
264.987788
 20
-37.628194
 30
0.0
  0
SEQEND
  5
5E
100
AcDbEntity
  8
SAFETY_MAINTENANCE
 62
     7
  0
SPLINE
  5
4A
100
AcDbEntity
  8
SAFETY_MAINTENANCE
 62
     7
100
AcDbSpline
210
0.0
220
0.0
230
-1.0
 70
     9
 71
     3
 72
    59
 73
    55
 74
     0
 42
0.0000001
 43
0.0000001
 40
0.0
 40
0.0
 40
0.0
 40
0.0
 40
1.0
 40
1.0
 40
1.0
 40
2.0
 40
2.0
 40
2.0
 40
3.0
 40
3.0
 40
3.0
 40
4.0
 40
4.0
 40
4.0
 40
5.0
 40
5.0
 40
5.0
 40
6.0
 40
6.0
 40
6.0
 40
7.0
 40
7.0
 40
7.0
 40
8.0
 40
8.0
 40
8.0
 40
9.0
 40
9.0
 40
9.0
 40
10.0
 40
10.0
 40
10.0
 40
11.0
 40
11.0
 40
11.0
 40
12.0
 40
12.0
 40
12.0
 40
13.0
 40
13.0
 40
13.0
 40
14.0
 40
14.0
 40
14.0
 40
15.0
 40
15.0
 40
15.0
 40
16.0
 40
16.0
 40
16.0
 40
17.0
 40
17.0
 40
17.0
 40
18.0
 40
18.0
 40
18.0
 40
18.0
 10
199.8629082573784
 20
-9.17222222222222
 30
0.0
 10
199.8629082573784
 20
-14.03394097222222
 30
0.0
 10
199.8629082573784
 20
-34.57222222222221
 30
0.0
 10
199.8629082573784
 20
-34.57222222222221
 30
0.0
 10
199.8629082573784
 20
-34.57222222222221
 30
0.0
 10
182.0074951171875
 20
-34.57256673177083
 30
0.0
 10
177.320270453559
 20
-34.57273898654513
 30
0.0
 10
177.320270453559
 20
-40.01254475911458
 30
0.0
 10
177.320270453559
 20
-77.23473442925346
 30
0.0
 10
177.320270453559
 20
-77.23473442925346
 30
0.0
 10
177.320270453559
 20
-77.23473442925346
 30
0.0
 10
155.8261474609374
 20
-77.23473442925346
 30
0.0
 10
150.911201985677
 20
-77.23473442925346
 30
0.0
 10
150.911201985677
 20
-81.6075941297743
 30
0.0
 10
150.911201985677
 20
-95.89474962022569
 30
0.0
 10
150.911201985677
 20
-95.89474962022569
 30
0.0
 10
150.911201985677
 20
-95.89474962022569
 30
0.0
 10
110.7195122612847
 20
-95.89474962022569
 30
0.0
 10
105.2213121202256
 20
-95.89474962022569
 30
0.0
 10
105.2213121202256
 20
-101.7254014756944
 30
0.0
 10
105.2213121202256
 20
-198.0144422743055
 30
0.0
 10
105.2213121202256
 20
-203.8449218749999
 30
0.0
 10
111.0831420898437
 20
-203.8449218749999
 30
0.0
 10
186.1889797634548
 20
-203.8449218749999
 30
0.0
 10
186.1889797634548
 20
-203.8449218749999
 30
0.0
 10
186.1889797634548
 20
-203.8449218749999
 30
0.0
 10
186.1889797634548
 20
-213.9521430121527
 30
0.0
 10
186.1889797634548
 20
-217.7300347222221
 30
0.0
 10
191.7471245659722
 20
-217.7300347222221
 30
0.0
 10
248.482679578993
 20
-217.7300347222221
 30
0.0
 10
254.040652126736
 20
-217.7300347222221
 30
0.0
 10
254.040652126736
 20
-213.9521430121527
 30
0.0
 10
254.040652126736
 20
-203.8449218749999
 30
0.0
 10
254.040652126736
 20
-203.8449218749999
 30
0.0
 10
254.040652126736
 20
-203.8449218749999
 30
0.0
 10
326.7049506293402
 20
-203.8449218749999
 30
0.0
 10
332.5516221788193
 20
-203.8449218749999
 30
0.0
 10
332.5516221788193
 20
-198.0144422743055
 30
0.0
 10
332.5516221788193
 20
-101.7254014756944
 30
0.0
 10
332.5516221788193
 20
-95.89474962022569
 30
0.0
 10
327.456325954861
 20
-95.89474962022569
 30
0.0
 10
302.0873318142361
 20
-95.89474962022569
 30
0.0
 10
302.0873318142361
 20
-95.89474962022569
 30
0.0
 10
302.0873318142361
 20
-95.89474962022569
 30
0.0
 10
302.0873318142361
 20
-46.44229871961805
 30
0.0
 10
302.0873318142361
 20
-40.80319417317708
 30
0.0
 10
296.6992024739582
 20
-40.80319417317708
 30
0.0
 10
261.8127875434027
 20
-40.80319417317708
 30
0.0
 10
261.8127875434027
 20
-40.80319417317708
 30
0.0
 10
261.8127875434027
 20
-40.80319417317708
 30
0.0
 10
261.8127875434027
 20
-14.31144341362847
 30
0.0
 10
261.8127875434027
 20
-9.17222222222222
 30
0.0
 10
256.320960828993
 20
-9.17222222222222
 30
0.0
 10
205.3547349717881
 20
-9.17222222222222
 30
0.0
 10
199.8629082573784
 20
-9.17222222222222
 30
0.0
  0
INSERT
  5
37
100
AcDbEntity
  8
SAFETY_MAINTENANCE
 62
     7
100
AcDbBlockReference
  2
AI9-BLK2
 10
218.886553
 20
-224.719444
 30
0.0
  0
INSERT
  5
23
100
AcDbEntity
  8
SAFETY_MAINTENANCE
 62
     7
100
AcDbBlockReference
  2
AI9-BLK1
 10
142.494403
 20
-113.451215
 30
0.0
  0
ENDSEC
  0
SECTION
  2
OBJECTS
  0
DICTIONARY
  5
19
100
AcDbDictionary
  3
ACAD_GROUP
350
1A
  3
ACAD_MLINESTYLE
350
1B
  0
DICTIONARY
  5
1A
102
{ACAD_REACTORS
330
19
102
}
100
AcDbDictionary
  0
DICTIONARY
  5
1B
102
{ACAD_REACTORS
330
19
102
}
100
AcDbDictionary
  3
STANDARD
350
1C
  0
MLINESTYLE
  5
1C
102
{ACAD_REACTORS
330
1B
102
}
100
AcDbMlineStyle
  2
STANDARD
 70
     0
  3

 62
     0
 51
90.0
 52
90.0
 71
     2
 49
0.5
 62
   256
  6
BYLAYER
 49
-0.5
 62
   256
  6
BYLAYER
  0
ENDSEC
  0
EOF
